  0
SECTION
  2
HEADER
  9
$DWGCODEPAGE
  3
iso8859-1
  9
$EXTMIN
 10
500000.00
 20
1140000.00
  9
$EXTMAX
 10
510000.00
 20
1150000.00
  9
$LUPREC
 70
    14
  0
ENDSEC
  0
SECTION
  2
TABLES
  0
ENDSEC
  0
SECTION
  2
BLOCKS
  0
ENDSEC
  0
SECTION
  2
ENTITIES
  0
POLYLINE
  8
RIVER_STREAM_SINGLE_LINE
 66
     1
 62
     5
  6
CONTINUOUS
  0
VERTEX
  8
RIVER_STREAM_SINGLE_LINE
 10
508630.00
 20
1148888.00
  0
VERTEX
  8
RIVER_STREAM_SINGLE_LINE
 10
508624.00
 20
1148902.00
  0
VERTEX
  8
RIVER_STREAM_SINGLE_LINE
 10
508612.00
 20
1148914.00
  0
VERTEX
  8
RIVER_STREAM_SINGLE_LINE
 10
508609.00
 20
1148930.00
  0
VERTEX
  8
RIVER_STREAM_SINGLE_LINE
 10
508606.00
 20
1148942.00
  0
VERTEX
  8
RIVER_STREAM_SINGLE_LINE
 10
508595.00
 20
1148961.00
  0
VERTEX
  8
RIVER_STREAM_SINGLE_LINE
 10
508588.00
 20
1148971.00
  0
VERTEX
  8
RIVER_STREAM_SINGLE_LINE
 10
508581.00
 20
1148994.00
  0
VERTEX
  8
RIVER_STREAM_SINGLE_LINE
 10
508569.00
 20
1149016.00
  0
VERTEX
  8
RIVER_STREAM_SINGLE_LINE
 10
508559.00
 20
1149027.00
  0
VERTEX
  8
RIVER_STREAM_SINGLE_LINE
 10
508550.00
 20
1149035.00
  0
VERTEX
  8
RIVER_STREAM_SINGLE_LINE
 10
508513.00
 20
1149034.00
  0
VERTEX
  8
RIVER_STREAM_SINGLE_LINE
 10
508494.00
 20
1149035.00
  0
VERTEX
  8
RIVER_STREAM_SINGLE_LINE
 10
508481.00
 20
1149038.00
  0
VERTEX
  8
RIVER_STREAM_SINGLE_LINE
 10
508467.00
 20
1149045.00
  0
VERTEX
  8
RIVER_STREAM_SINGLE_LINE
 10
508451.00
 20
1149051.00
  0
VERTEX
  8
RIVER_STREAM_SINGLE_LINE
 10
508429.00
 20
1149058.00
  0
VERTEX
  8
RIVER_STREAM_SINGLE_LINE
 10
508406.00
 20
1149063.00
  0
VERTEX
  8
RIVER_STREAM_SINGLE_LINE
 10
508390.00
 20
1149068.00
  0
VERTEX
  8
RIVER_STREAM_SINGLE_LINE
 10
508378.00
 20
1149076.00
  0
VERTEX
  8
RIVER_STREAM_SINGLE_LINE
 10
508367.00
 20
1149083.00
  0
VERTEX
  8
RIVER_STREAM_SINGLE_LINE
 10
508364.00
 20
1149094.00
  0
VERTEX
  8
RIVER_STREAM_SINGLE_LINE
 10
508360.00
 20
1149102.00
  0
VERTEX
  8
RIVER_STREAM_SINGLE_LINE
 10
508354.00
 20
1149152.00
  0
VERTEX
  8
RIVER_STREAM_SINGLE_LINE
 10
508347.00
 20
1149187.00
  0
VERTEX
  8
RIVER_STREAM_SINGLE_LINE
 10
508339.00
 20
1149196.00
  0
VERTEX
  8
RIVER_STREAM_SINGLE_LINE
 10
508323.00
 20
1149208.00
  0
VERTEX
  8
RIVER_STREAM_SINGLE_LINE
 10
508316.00
 20
1149217.00
  0
VERTEX
  8
RIVER_STREAM_SINGLE_LINE
 10
508310.00
 20
1149231.00
  0
VERTEX
  8
RIVER_STREAM_SINGLE_LINE
 10
508304.00
 20
1149246.00
  0
VERTEX
  8
RIVER_STREAM_SINGLE_LINE
 10
508302.00
 20
1149262.00
  0
VERTEX
  8
RIVER_STREAM_SINGLE_LINE
 10
508302.00
 20
1149280.00
  0
VERTEX
  8
RIVER_STREAM_SINGLE_LINE
 10
508303.00
 20
1149293.00
  0
VERTEX
  8
RIVER_STREAM_SINGLE_LINE
 10
508309.00
 20
1149302.00
  0
VERTEX
  8
RIVER_STREAM_SINGLE_LINE
 10
508314.00
 20
1149310.00
  0
VERTEX
  8
RIVER_STREAM_SINGLE_LINE
 10
508319.00
 20
1149319.00
  0
VERTEX
  8
RIVER_STREAM_SINGLE_LINE
 10
508317.00
 20
1149326.00
  0
VERTEX
  8
RIVER_STREAM_SINGLE_LINE
 10
508307.00
 20
1149333.00
  0
VERTEX
  8
RIVER_STREAM_SINGLE_LINE
 10
508303.00
 20
1149342.00
  0
VERTEX
  8
RIVER_STREAM_SINGLE_LINE
 10
508305.00
 20
1149347.00
  0
VERTEX
  8
RIVER_STREAM_SINGLE_LINE
 10
508311.00
 20
1149353.00
  0
VERTEX
  8
RIVER_STREAM_SINGLE_LINE
 10
508318.00
 20
1149358.00
  0
VERTEX
  8
RIVER_STREAM_SINGLE_LINE
 10
508319.00
 20
1149368.00
  0
VERTEX
  8
RIVER_STREAM_SINGLE_LINE
 10
508313.00
 20
1149377.00
  0
VERTEX
  8
RIVER_STREAM_SINGLE_LINE
 10
508312.00
 20
1149383.00
  0
VERTEX
  8
RIVER_STREAM_SINGLE_LINE
 10
508317.00
 20
1149392.00
  0
SEQEND
  8
RIVER_STREAM_SINGLE_LINE
  0
POLYLINE
  8
RIVER_STREAM_SINGLE_LINE
 66
     1
 62
     5
  6
CONTINUOUS
  0
VERTEX
  8
RIVER_STREAM_SINGLE_LINE
 10
509329.00
 20
1146453.00
  0
VERTEX
  8
RIVER_STREAM_SINGLE_LINE
 10
509339.00
 20
1146465.00
  0
VERTEX
  8
RIVER_STREAM_SINGLE_LINE
 10
509366.00
 20
1146472.00
  0
VERTEX
  8
RIVER_STREAM_SINGLE_LINE
 10
509393.00
 20
1146478.00
  0
VERTEX
  8
RIVER_STREAM_SINGLE_LINE
 10
509426.00
 20
1146483.00
  0
VERTEX
  8
RIVER_STREAM_SINGLE_LINE
 10
509449.00
 20
1146484.00
  0
VERTEX
  8
RIVER_STREAM_SINGLE_LINE
 10
509468.00
 20
1146487.00
  0
VERTEX
  8
RIVER_STREAM_SINGLE_LINE
 10
509487.00
 20
1146488.00
  0
VERTEX
  8
RIVER_STREAM_SINGLE_LINE
 10
509511.00
 20
1146485.00
  0
VERTEX
  8
RIVER_STREAM_SINGLE_LINE
 10
509530.00
 20
1146480.00
  0
VERTEX
  8
RIVER_STREAM_SINGLE_LINE
 10
509541.00
 20
1146477.00
  0
VERTEX
  8
RIVER_STREAM_SINGLE_LINE
 10
509569.00
 20
1146468.00
  0
SEQEND
  8
RIVER_STREAM_SINGLE_LINE
  0
POLYLINE
  8
RIVER_STREAM_SINGLE_LINE
 66
     1
 62
     5
  6
CONTINUOUS
  0
VERTEX
  8
RIVER_STREAM_SINGLE_LINE
 10
509236.00
 20
1146497.00
  0
VERTEX
  8
RIVER_STREAM_SINGLE_LINE
 10
509243.00
 20
1146494.00
  0
VERTEX
  8
RIVER_STREAM_SINGLE_LINE
 10
509264.00
 20
1146484.00
  0
VERTEX
  8
RIVER_STREAM_SINGLE_LINE
 10
509285.00
 20
1146475.00
  0
VERTEX
  8
RIVER_STREAM_SINGLE_LINE
 10
509294.00
 20
1146472.00
  0
VERTEX
  8
RIVER_STREAM_SINGLE_LINE
 10
509308.00
 20
1146470.00
  0
VERTEX
  8
RIVER_STREAM_SINGLE_LINE
 10
509318.00
 20
1146463.00
  0
VERTEX
  8
RIVER_STREAM_SINGLE_LINE
 10
509329.00
 20
1146453.00
  0
SEQEND
  8
RIVER_STREAM_SINGLE_LINE
  0
POLYLINE
  8
RIVER_STREAM_SINGLE_LINE
 66
     1
 62
     5
  6
CONTINUOUS
  0
VERTEX
  8
RIVER_STREAM_SINGLE_LINE
 10
503244.00
 20
1146445.00
  0
VERTEX
  8
RIVER_STREAM_SINGLE_LINE
 10
503263.00
 20
1146472.00
  0
VERTEX
  8
RIVER_STREAM_SINGLE_LINE
 10
503271.00
 20
1146483.00
  0
VERTEX
  8
RIVER_STREAM_SINGLE_LINE
 10
503287.00
 20
1146488.00
  0
VERTEX
  8
RIVER_STREAM_SINGLE_LINE
 10
503308.00
 20
1146486.00
  0
VERTEX
  8
RIVER_STREAM_SINGLE_LINE
 10
503326.00
 20
1146491.00
  0
VERTEX
  8
RIVER_STREAM_SINGLE_LINE
 10
503341.00
 20
1146485.00
  0
VERTEX
  8
RIVER_STREAM_SINGLE_LINE
 10
503357.00
 20
1146476.00
  0
VERTEX
  8
RIVER_STREAM_SINGLE_LINE
 10
503371.00
 20
1146466.00
  0
VERTEX
  8
RIVER_STREAM_SINGLE_LINE
 10
503376.00
 20
1146460.00
  0
VERTEX
  8
RIVER_STREAM_SINGLE_LINE
 10
503385.00
 20
1146463.00
  0
VERTEX
  8
RIVER_STREAM_SINGLE_LINE
 10
503400.00
 20
1146474.00
  0
VERTEX
  8
RIVER_STREAM_SINGLE_LINE
 10
503412.00
 20
1146486.00
  0
VERTEX
  8
RIVER_STREAM_SINGLE_LINE
 10
503418.00
 20
1146494.00
  0
VERTEX
  8
RIVER_STREAM_SINGLE_LINE
 10
503428.00
 20
1146499.00
  0
VERTEX
  8
RIVER_STREAM_SINGLE_LINE
 10
503444.00
 20
1146506.00
  0
SEQEND
  8
RIVER_STREAM_SINGLE_LINE
  0
POLYLINE
  8
RIVER_STREAM_SINGLE_LINE
 66
     1
 62
     5
  6
CONTINUOUS
  0
VERTEX
  8
RIVER_STREAM_SINGLE_LINE
 10
509379.00
 20
1146027.00
  0
VERTEX
  8
RIVER_STREAM_SINGLE_LINE
 10
509373.00
 20
1146044.00
  0
VERTEX
  8
RIVER_STREAM_SINGLE_LINE
 10
509358.00
 20
1146065.00
  0
VERTEX
  8
RIVER_STREAM_SINGLE_LINE
 10
509341.00
 20
1146088.00
  0
VERTEX
  8
RIVER_STREAM_SINGLE_LINE
 10
509328.00
 20
1146110.00
  0
VERTEX
  8
RIVER_STREAM_SINGLE_LINE
 10
509321.00
 20
1146124.00
  0
VERTEX
  8
RIVER_STREAM_SINGLE_LINE
 10
509314.00
 20
1146152.00
  0
VERTEX
  8
RIVER_STREAM_SINGLE_LINE
 10
509307.00
 20
1146173.00
  0
VERTEX
  8
RIVER_STREAM_SINGLE_LINE
 10
509299.00
 20
1146213.00
  0
VERTEX
  8
RIVER_STREAM_SINGLE_LINE
 10
509293.00
 20
1146253.00
  0
VERTEX
  8
RIVER_STREAM_SINGLE_LINE
 10
509286.00
 20
1146286.00
  0
VERTEX
  8
RIVER_STREAM_SINGLE_LINE
 10
509279.00
 20
1146326.00
  0
VERTEX
  8
RIVER_STREAM_SINGLE_LINE
 10
509275.00
 20
1146360.00
  0
VERTEX
  8
RIVER_STREAM_SINGLE_LINE
 10
509275.00
 20
1146385.00
  0
VERTEX
  8
RIVER_STREAM_SINGLE_LINE
 10
509280.00
 20
1146404.00
  0
VERTEX
  8
RIVER_STREAM_SINGLE_LINE
 10
509291.00
 20
1146417.00
  0
VERTEX
  8
RIVER_STREAM_SINGLE_LINE
 10
509304.00
 20
1146426.00
  0
VERTEX
  8
RIVER_STREAM_SINGLE_LINE
 10
509317.00
 20
1146437.00
  0
VERTEX
  8
RIVER_STREAM_SINGLE_LINE
 10
509329.00
 20
1146453.00
  0
SEQEND
  8
RIVER_STREAM_SINGLE_LINE
  0
POLYLINE
  8
BEAVER_DAM
 66
     1
 62
     2
  6
CONTINUOUS
  0
VERTEX
  8
BEAVER_DAM
 10
509286.00
 20
1146033.00
  0
VERTEX
  8
BEAVER_DAM
 10
509298.00
 20
1146024.00
  0
VERTEX
  8
BEAVER_DAM
 10
509302.00
 20
1146009.00
  0
VERTEX
  8
BEAVER_DAM
 10
509298.00
 20
1145996.00
  0
VERTEX
  8
BEAVER_DAM
 10
509310.00
 20
1145992.00
  0
VERTEX
  8
BEAVER_DAM
 10
509323.00
 20
1145986.00
  0
VERTEX
  8
BEAVER_DAM
 10
509332.00
 20
1145981.00
  0
VERTEX
  8
BEAVER_DAM
 10
509342.00
 20
1145969.00
  0
VERTEX
  8
BEAVER_DAM
 10
509347.00
 20
1145957.00
  0
VERTEX
  8
BEAVER_DAM
 10
509356.00
 20
1145945.00
  0
SEQEND
  8
BEAVER_DAM
  0
POLYLINE
  8
BEAVER_DAM
 66
     1
 62
     2
  6
CONTINUOUS
  0
VERTEX
  8
BEAVER_DAM
 10
509356.00
 20
1145945.00
  0
VERTEX
  8
BEAVER_DAM
 10
509361.00
 20
1145935.00
  0
SEQEND
  8
BEAVER_DAM
  0
POLYLINE
  8
RIVER_STREAM_SINGLE_LINE
 66
     1
 62
     5
  6
CONTINUOUS
  0
VERTEX
  8
RIVER_STREAM_SINGLE_LINE
 10
508930.00
 20
1145835.00
  0
VERTEX
  8
RIVER_STREAM_SINGLE_LINE
 10
508934.00
 20
1145841.00
  0
VERTEX
  8
RIVER_STREAM_SINGLE_LINE
 10
508942.00
 20
1145857.00
  0
VERTEX
  8
RIVER_STREAM_SINGLE_LINE
 10
508954.00
 20
1145867.00
  0
VERTEX
  8
RIVER_STREAM_SINGLE_LINE
 10
508968.00
 20
1145876.00
  0
VERTEX
  8
RIVER_STREAM_SINGLE_LINE
 10
508985.00
 20
1145887.00
  0
VERTEX
  8
RIVER_STREAM_SINGLE_LINE
 10
509000.00
 20
1145894.00
  0
VERTEX
  8
RIVER_STREAM_SINGLE_LINE
 10
509013.00
 20
1145896.00
  0
VERTEX
  8
RIVER_STREAM_SINGLE_LINE
 10
509039.00
 20
1145892.00
  0
VERTEX
  8
RIVER_STREAM_SINGLE_LINE
 10
509070.00
 20
1145883.00
  0
VERTEX
  8
RIVER_STREAM_SINGLE_LINE
 10
509094.00
 20
1145880.00
  0
VERTEX
  8
RIVER_STREAM_SINGLE_LINE
 10
509119.00
 20
1145879.00
  0
VERTEX
  8
RIVER_STREAM_SINGLE_LINE
 10
509142.00
 20
1145879.00
  0
VERTEX
  8
RIVER_STREAM_SINGLE_LINE
 10
509156.00
 20
1145878.00
  0
VERTEX
  8
RIVER_STREAM_SINGLE_LINE
 10
509172.00
 20
1145880.00
  0
SEQEND
  8
RIVER_STREAM_SINGLE_LINE
  0
POLYLINE
  8
RIVER_STREAM_SINGLE_LINE
 66
     1
 62
     5
  6
CONTINUOUS
  0
VERTEX
  8
RIVER_STREAM_SINGLE_LINE
 10
508468.00
 20
1145581.00
  0
VERTEX
  8
RIVER_STREAM_SINGLE_LINE
 10
508485.00
 20
1145584.00
  0
VERTEX
  8
RIVER_STREAM_SINGLE_LINE
 10
508499.00
 20
1145585.00
  0
VERTEX
  8
RIVER_STREAM_SINGLE_LINE
 10
508509.00
 20
1145592.00
  0
VERTEX
  8
RIVER_STREAM_SINGLE_LINE
 10
508519.00
 20
1145605.00
  0
VERTEX
  8
RIVER_STREAM_SINGLE_LINE
 10
508531.00
 20
1145614.00
  0
VERTEX
  8
RIVER_STREAM_SINGLE_LINE
 10
508547.00
 20
1145616.00
  0
VERTEX
  8
RIVER_STREAM_SINGLE_LINE
 10
508565.00
 20
1145620.00
  0
VERTEX
  8
RIVER_STREAM_SINGLE_LINE
 10
508576.00
 20
1145629.00
  0
VERTEX
  8
RIVER_STREAM_SINGLE_LINE
 10
508580.00
 20
1145636.00
  0
VERTEX
  8
RIVER_STREAM_SINGLE_LINE
 10
508579.00
 20
1145654.00
  0
VERTEX
  8
RIVER_STREAM_SINGLE_LINE
 10
508580.00
 20
1145667.00
  0
VERTEX
  8
RIVER_STREAM_SINGLE_LINE
 10
508581.00
 20
1145682.00
  0
VERTEX
  8
RIVER_STREAM_SINGLE_LINE
 10
508589.00
 20
1145691.00
  0
VERTEX
  8
RIVER_STREAM_SINGLE_LINE
 10
508612.00
 20
1145712.00
  0
VERTEX
  8
RIVER_STREAM_SINGLE_LINE
 10
508635.00
 20
1145725.00
  0
VERTEX
  8
RIVER_STREAM_SINGLE_LINE
 10
508661.00
 20
1145744.00
  0
VERTEX
  8
RIVER_STREAM_SINGLE_LINE
 10
508681.00
 20
1145759.00
  0
VERTEX
  8
RIVER_STREAM_SINGLE_LINE
 10
508684.00
 20
1145761.00
  0
SEQEND
  8
RIVER_STREAM_SINGLE_LINE
  0
POLYLINE
  8
BEAVER_DAM
 66
     1
 62
     2
  6
CONTINUOUS
  0
VERTEX
  8
BEAVER_DAM
 10
508453.00
 20
1145597.00
  0
VERTEX
  8
BEAVER_DAM
 10
508467.00
 20
1145583.00
  0
VERTEX
  8
BEAVER_DAM
 10
508468.00
 20
1145581.00
  0
SEQEND
  8
BEAVER_DAM
  0
POLYLINE
  8
BEAVER_DAM
 66
     1
 62
     2
  6
CONTINUOUS
  0
VERTEX
  8
BEAVER_DAM
 10
508468.00
 20
1145581.00
  0
VERTEX
  8
BEAVER_DAM
 10
508471.00
 20
1145577.00
  0
VERTEX
  8
BEAVER_DAM
 10
508471.00
 20
1145570.00
  0
SEQEND
  8
BEAVER_DAM
  0
POLYLINE
  8
RIVER_STREAM_SINGLE_LINE
 66
     1
 62
     5
  6
CONTINUOUS
  0
VERTEX
  8
RIVER_STREAM_SINGLE_LINE
 10
505797.00
 20
1145892.00
  0
VERTEX
  8
RIVER_STREAM_SINGLE_LINE
 10
505826.00
 20
1145868.00
  0
VERTEX
  8
RIVER_STREAM_SINGLE_LINE
 10
505848.00
 20
1145848.00
  0
VERTEX
  8
RIVER_STREAM_SINGLE_LINE
 10
505867.00
 20
1145826.00
  0
VERTEX
  8
RIVER_STREAM_SINGLE_LINE
 10
505891.00
 20
1145798.00
  0
VERTEX
  8
RIVER_STREAM_SINGLE_LINE
 10
505913.00
 20
1145767.00
  0
VERTEX
  8
RIVER_STREAM_SINGLE_LINE
 10
505922.00
 20
1145747.00
  0
VERTEX
  8
RIVER_STREAM_SINGLE_LINE
 10
505929.00
 20
1145726.00
  0
VERTEX
  8
RIVER_STREAM_SINGLE_LINE
 10
505931.00
 20
1145700.00
  0
VERTEX
  8
RIVER_STREAM_SINGLE_LINE
 10
505931.00
 20
1145682.00
  0
VERTEX
  8
RIVER_STREAM_SINGLE_LINE
 10
505937.00
 20
1145670.00
  0
VERTEX
  8
RIVER_STREAM_SINGLE_LINE
 10
505943.00
 20
1145661.00
  0
VERTEX
  8
RIVER_STREAM_SINGLE_LINE
 10
505947.00
 20
1145650.00
  0
VERTEX
  8
RIVER_STREAM_SINGLE_LINE
 10
505963.00
 20
1145639.00
  0
VERTEX
  8
RIVER_STREAM_SINGLE_LINE
 10
505987.00
 20
1145618.00
  0
VERTEX
  8
RIVER_STREAM_SINGLE_LINE
 10
506013.00
 20
1145603.00
  0
VERTEX
  8
RIVER_STREAM_SINGLE_LINE
 10
506042.00
 20
1145597.00
  0
VERTEX
  8
RIVER_STREAM_SINGLE_LINE
 10
506058.00
 20
1145590.00
  0
VERTEX
  8
RIVER_STREAM_SINGLE_LINE
 10
506070.00
 20
1145580.00
  0
VERTEX
  8
RIVER_STREAM_SINGLE_LINE
 10
506085.00
 20
1145563.00
  0
VERTEX
  8
RIVER_STREAM_SINGLE_LINE
 10
506105.00
 20
1145547.00
  0
VERTEX
  8
RIVER_STREAM_SINGLE_LINE
 10
506128.00
 20
1145535.00
  0
VERTEX
  8
RIVER_STREAM_SINGLE_LINE
 10
506165.00
 20
1145525.00
  0
VERTEX
  8
RIVER_STREAM_SINGLE_LINE
 10
506199.00
 20
1145518.00
  0
VERTEX
  8
RIVER_STREAM_SINGLE_LINE
 10
506229.00
 20
1145514.00
  0
VERTEX
  8
RIVER_STREAM_SINGLE_LINE
 10
506262.00
 20
1145512.00
  0
VERTEX
  8
RIVER_STREAM_SINGLE_LINE
 10
506279.00
 20
1145494.00
  0
VERTEX
  8
RIVER_STREAM_SINGLE_LINE
 10
506283.00
 20
1145468.00
  0
VERTEX
  8
RIVER_STREAM_SINGLE_LINE
 10
506286.00
 20
1145453.00
  0
VERTEX
  8
RIVER_STREAM_SINGLE_LINE
 10
506288.00
 20
1145445.00
  0
SEQEND
  8
RIVER_STREAM_SINGLE_LINE
  0
POLYLINE
  8
RIVER_STREAM_SINGLE_LINE
 66
     1
 62
     5
  6
CONTINUOUS
  0
VERTEX
  8
RIVER_STREAM_SINGLE_LINE
 10
508383.00
 20
1145235.00
  0
VERTEX
  8
RIVER_STREAM_SINGLE_LINE
 10
508387.00
 20
1145262.00
  0
VERTEX
  8
RIVER_STREAM_SINGLE_LINE
 10
508388.00
 20
1145282.00
  0
VERTEX
  8
RIVER_STREAM_SINGLE_LINE
 10
508384.00
 20
1145297.00
  0
VERTEX
  8
RIVER_STREAM_SINGLE_LINE
 10
508375.00
 20
1145309.00
  0
VERTEX
  8
RIVER_STREAM_SINGLE_LINE
 10
508364.00
 20
1145321.00
  0
VERTEX
  8
RIVER_STREAM_SINGLE_LINE
 10
508355.00
 20
1145334.00
  0
VERTEX
  8
RIVER_STREAM_SINGLE_LINE
 10
508354.00
 20
1145350.00
  0
VERTEX
  8
RIVER_STREAM_SINGLE_LINE
 10
508361.00
 20
1145370.00
  0
VERTEX
  8
RIVER_STREAM_SINGLE_LINE
 10
508365.00
 20
1145384.00
  0
VERTEX
  8
RIVER_STREAM_SINGLE_LINE
 10
508366.00
 20
1145396.00
  0
VERTEX
  8
RIVER_STREAM_SINGLE_LINE
 10
508364.00
 20
1145404.00
  0
VERTEX
  8
RIVER_STREAM_SINGLE_LINE
 10
508354.00
 20
1145411.00
  0
SEQEND
  8
RIVER_STREAM_SINGLE_LINE
  0
POLYLINE
  8
BEAVER_DAM
 66
     1
 62
     2
  6
CONTINUOUS
  0
VERTEX
  8
BEAVER_DAM
 10
503250.00
 20
1144760.00
  0
VERTEX
  8
BEAVER_DAM
 10
503263.00
 20
1144754.00
  0
VERTEX
  8
BEAVER_DAM
 10
503269.00
 20
1144747.00
  0
SEQEND
  8
BEAVER_DAM
  0
POLYLINE
  8
BEAVER_DAM
 66
     1
 62
     2
  6
CONTINUOUS
  0
VERTEX
  8
BEAVER_DAM
 10
505430.00
 20
1144720.00
  0
VERTEX
  8
BEAVER_DAM
 10
505435.00
 20
1144722.00
  0
SEQEND
  8
BEAVER_DAM
  0
POLYLINE
  8
BEAVER_DAM
 66
     1
 62
     2
  6
CONTINUOUS
  0
VERTEX
  8
BEAVER_DAM
 10
503269.00
 20
1144747.00
  0
VERTEX
  8
BEAVER_DAM
 10
503274.00
 20
1144735.00
  0
VERTEX
  8
BEAVER_DAM
 10
503278.00
 20
1144722.00
  0
VERTEX
  8
BEAVER_DAM
 10
503282.00
 20
1144713.00
  0
VERTEX
  8
BEAVER_DAM
 10
503299.00
 20
1144717.00
  0
VERTEX
  8
BEAVER_DAM
 10
503314.00
 20
1144714.00
  0
SEQEND
  8
BEAVER_DAM
  0
POLYLINE
  8
BEAVER_DAM
 66
     1
 62
     2
  6
CONTINUOUS
  0
VERTEX
  8
BEAVER_DAM
 10
505394.00
 20
1144704.00
  0
VERTEX
  8
BEAVER_DAM
 10
505403.00
 20
1144714.00
  0
VERTEX
  8
BEAVER_DAM
 10
505430.00
 20
1144720.00
  0
SEQEND
  8
BEAVER_DAM
  0
POLYLINE
  8
RIVER_STREAM_SINGLE_LINE
 66
     1
 62
     5
  6
CONTINUOUS
  0
VERTEX
  8
RIVER_STREAM_SINGLE_LINE
 10
503220.00
 20
1144701.00
  0
VERTEX
  8
RIVER_STREAM_SINGLE_LINE
 10
503235.00
 20
1144720.00
  0
VERTEX
  8
RIVER_STREAM_SINGLE_LINE
 10
503269.00
 20
1144747.00
  0
SEQEND
  8
RIVER_STREAM_SINGLE_LINE
  0
POLYLINE
  8
RIVER_STREAM_SINGLE_LINE
 66
     1
 62
     5
  6
CONTINUOUS
  0
VERTEX
  8
RIVER_STREAM_SINGLE_LINE
 10
506997.00
 20
1144477.00
  0
VERTEX
  8
RIVER_STREAM_SINGLE_LINE
 10
507009.00
 20
1144495.00
  0
VERTEX
  8
RIVER_STREAM_SINGLE_LINE
 10
507021.00
 20
1144523.00
  0
VERTEX
  8
RIVER_STREAM_SINGLE_LINE
 10
507030.00
 20
1144552.00
  0
VERTEX
  8
RIVER_STREAM_SINGLE_LINE
 10
507042.00
 20
1144590.00
  0
VERTEX
  8
RIVER_STREAM_SINGLE_LINE
 10
507053.00
 20
1144618.00
  0
VERTEX
  8
RIVER_STREAM_SINGLE_LINE
 10
507064.00
 20
1144642.00
  0
VERTEX
  8
RIVER_STREAM_SINGLE_LINE
 10
507072.00
 20
1144653.00
  0
VERTEX
  8
RIVER_STREAM_SINGLE_LINE
 10
507090.00
 20
1144666.00
  0
VERTEX
  8
RIVER_STREAM_SINGLE_LINE
 10
507104.00
 20
1144680.00
  0
VERTEX
  8
RIVER_STREAM_SINGLE_LINE
 10
507110.00
 20
1144696.00
  0
VERTEX
  8
RIVER_STREAM_SINGLE_LINE
 10
507115.00
 20
1144714.00
  0
VERTEX
  8
RIVER_STREAM_SINGLE_LINE
 10
507114.00
 20
1144727.00
  0
VERTEX
  8
RIVER_STREAM_SINGLE_LINE
 10
507113.00
 20
1144735.00
  0
VERTEX
  8
RIVER_STREAM_SINGLE_LINE
 10
507126.00
 20
1144745.00
  0
VERTEX
  8
RIVER_STREAM_SINGLE_LINE
 10
507130.00
 20
1144752.00
  0
VERTEX
  8
RIVER_STREAM_SINGLE_LINE
 10
507137.00
 20
1144762.00
  0
SEQEND
  8
RIVER_STREAM_SINGLE_LINE
  0
POLYLINE
  8
BEAVER_DAM
 66
     1
 62
     2
  6
CONTINUOUS
  0
VERTEX
  8
BEAVER_DAM
 10
505220.00
 20
1144279.00
  0
VERTEX
  8
BEAVER_DAM
 10
505245.00
 20
1144301.00
  0
SEQEND
  8
BEAVER_DAM
  0
POLYLINE
  8
BEAVER_DAM
 66
     1
 62
     2
  6
CONTINUOUS
  0
VERTEX
  8
BEAVER_DAM
 10
506834.00
 20
1144207.00
  0
VERTEX
  8
BEAVER_DAM
 10
506855.00
 20
1144206.00
  0
VERTEX
  8
BEAVER_DAM
 10
506866.00
 20
1144193.00
  0
VERTEX
  8
BEAVER_DAM
 10
506874.00
 20
1144181.00
  0
VERTEX
  8
BEAVER_DAM
 10
506882.00
 20
1144179.00
  0
SEQEND
  8
BEAVER_DAM
  0
POLYLINE
  8
BEAVER_DAM
 66
     1
 62
     2
  6
CONTINUOUS
  0
VERTEX
  8
BEAVER_DAM
 10
505243.00
 20
1144165.00
  0
VERTEX
  8
BEAVER_DAM
 10
505276.00
 20
1144172.00
  0
SEQEND
  8
BEAVER_DAM
  0
POLYLINE
  8
BEAVER_DAM
 66
     1
 62
     2
  6
CONTINUOUS
  0
VERTEX
  8
BEAVER_DAM
 10
502458.00
 20
1143950.00
  0
VERTEX
  8
BEAVER_DAM
 10
502463.00
 20
1143930.00
  0
VERTEX
  8
BEAVER_DAM
 10
502467.00
 20
1143921.00
  0
VERTEX
  8
BEAVER_DAM
 10
502482.00
 20
1143911.00
  0
VERTEX
  8
BEAVER_DAM
 10
502493.00
 20
1143893.00
  0
SEQEND
  8
BEAVER_DAM
  0
POLYLINE
  8
RIVER_STREAM_SINGLE_LINE
 66
     1
 62
     5
  6
CONTINUOUS
  0
VERTEX
  8
RIVER_STREAM_SINGLE_LINE
 10
509131.00
 20
1143562.00
  0
VERTEX
  8
RIVER_STREAM_SINGLE_LINE
 10
509138.00
 20
1143566.00
  0
VERTEX
  8
RIVER_STREAM_SINGLE_LINE
 10
509147.00
 20
1143571.00
  0
VERTEX
  8
RIVER_STREAM_SINGLE_LINE
 10
509156.00
 20
1143575.00
  0
VERTEX
  8
RIVER_STREAM_SINGLE_LINE
 10
509165.00
 20
1143580.00
  0
VERTEX
  8
RIVER_STREAM_SINGLE_LINE
 10
509174.00
 20
1143582.00
  0
VERTEX
  8
RIVER_STREAM_SINGLE_LINE
 10
509182.00
 20
1143588.00
  0
VERTEX
  8
RIVER_STREAM_SINGLE_LINE
 10
509189.00
 20
1143594.00
  0
VERTEX
  8
RIVER_STREAM_SINGLE_LINE
 10
509199.00
 20
1143601.00
  0
VERTEX
  8
RIVER_STREAM_SINGLE_LINE
 10
509206.00
 20
1143606.00
  0
VERTEX
  8
RIVER_STREAM_SINGLE_LINE
 10
509213.00
 20
1143611.00
  0
VERTEX
  8
RIVER_STREAM_SINGLE_LINE
 10
509219.00
 20
1143615.00
  0
VERTEX
  8
RIVER_STREAM_SINGLE_LINE
 10
509228.00
 20
1143621.00
  0
VERTEX
  8
RIVER_STREAM_SINGLE_LINE
 10
509234.00
 20
1143625.00
  0
VERTEX
  8
RIVER_STREAM_SINGLE_LINE
 10
509248.00
 20
1143633.00
  0
VERTEX
  8
RIVER_STREAM_SINGLE_LINE
 10
509254.00
 20
1143639.00
  0
VERTEX
  8
RIVER_STREAM_SINGLE_LINE
 10
509261.00
 20
1143644.00
  0
VERTEX
  8
RIVER_STREAM_SINGLE_LINE
 10
509270.00
 20
1143653.00
  0
VERTEX
  8
RIVER_STREAM_SINGLE_LINE
 10
509277.00
 20
1143659.00
  0
VERTEX
  8
RIVER_STREAM_SINGLE_LINE
 10
509285.00
 20
1143666.00
  0
VERTEX
  8
RIVER_STREAM_SINGLE_LINE
 10
509296.00
 20
1143677.00
  0
VERTEX
  8
RIVER_STREAM_SINGLE_LINE
 10
509298.00
 20
1143680.00
  0
VERTEX
  8
RIVER_STREAM_SINGLE_LINE
 10
509307.00
 20
1143687.00
  0
VERTEX
  8
RIVER_STREAM_SINGLE_LINE
 10
509313.00
 20
1143692.00
  0
VERTEX
  8
RIVER_STREAM_SINGLE_LINE
 10
509316.00
 20
1143695.00
  0
VERTEX
  8
RIVER_STREAM_SINGLE_LINE
 10
509325.00
 20
1143702.00
  0
SEQEND
  8
RIVER_STREAM_SINGLE_LINE
  0
POLYLINE
  8
RIVER_STREAM_SINGLE_LINE
 66
     1
 62
     5
  6
CONTINUOUS
  0
VERTEX
  8
RIVER_STREAM_SINGLE_LINE
 10
504948.00
 20
1143598.00
  0
VERTEX
  8
RIVER_STREAM_SINGLE_LINE
 10
504957.00
 20
1143596.00
  0
VERTEX
  8
RIVER_STREAM_SINGLE_LINE
 10
504988.00
 20
1143586.00
  0
VERTEX
  8
RIVER_STREAM_SINGLE_LINE
 10
505035.00
 20
1143577.00
  0
VERTEX
  8
RIVER_STREAM_SINGLE_LINE
 10
505074.00
 20
1143572.00
  0
VERTEX
  8
RIVER_STREAM_SINGLE_LINE
 10
505109.00
 20
1143563.00
  0
VERTEX
  8
RIVER_STREAM_SINGLE_LINE
 10
505150.00
 20
1143548.00
  0
VERTEX
  8
RIVER_STREAM_SINGLE_LINE
 10
505178.00
 20
1143538.00
  0
VERTEX
  8
RIVER_STREAM_SINGLE_LINE
 10
505198.00
 20
1143528.00
  0
VERTEX
  8
RIVER_STREAM_SINGLE_LINE
 10
505218.00
 20
1143523.00
  0
VERTEX
  8
RIVER_STREAM_SINGLE_LINE
 10
505238.00
 20
1143518.00
  0
SEQEND
  8
RIVER_STREAM_SINGLE_LINE
  0
POLYLINE
  8
BEAVER_DAM
 66
     1
 62
     2
  6
CONTINUOUS
  0
VERTEX
  8
BEAVER_DAM
 10
509886.00
 20
1143202.00
  0
VERTEX
  8
BEAVER_DAM
 10
509901.00
 20
1143200.00
  0
SEQEND
  8
BEAVER_DAM
  0
POLYLINE
  8
BEAVER_DAM
 66
     1
 62
     2
  6
CONTINUOUS
  0
VERTEX
  8
BEAVER_DAM
 10
509884.00
 20
1143185.00
  0
VERTEX
  8
BEAVER_DAM
 10
509895.00
 20
1143184.00
  0
SEQEND
  8
BEAVER_DAM
  0
POLYLINE
  8
BEAVER_DAM
 66
     1
 62
     2
  6
CONTINUOUS
  0
VERTEX
  8
BEAVER_DAM
 10
504341.00
 20
1143190.00
  0
VERTEX
  8
BEAVER_DAM
 10
504389.00
 20
1143153.00
  0
SEQEND
  8
BEAVER_DAM
  0
POLYLINE
  8
BEAVER_DAM
 66
     1
 62
     2
  6
CONTINUOUS
  0
VERTEX
  8
BEAVER_DAM
 10
504389.00
 20
1143153.00
  0
VERTEX
  8
BEAVER_DAM
 10
504397.00
 20
1143145.00
  0
SEQEND
  8
BEAVER_DAM
  0
POLYLINE
  8
BEAVER_DAM
 66
     1
 62
     2
  6
CONTINUOUS
  0
VERTEX
  8
BEAVER_DAM
 10
509764.00
 20
1143107.00
  0
VERTEX
  8
BEAVER_DAM
 10
509769.00
 20
1143094.00
  0
SEQEND
  8
BEAVER_DAM
  0
POLYLINE
  8
BEAVER_DAM
 66
     1
 62
     2
  6
CONTINUOUS
  0
VERTEX
  8
BEAVER_DAM
 10
509257.00
 20
1143104.00
  0
VERTEX
  8
BEAVER_DAM
 10
509259.00
 20
1143089.00
  0
SEQEND
  8
BEAVER_DAM
  0
POLYLINE
  8
BEAVER_DAM
 66
     1
 62
     2
  6
CONTINUOUS
  0
VERTEX
  8
BEAVER_DAM
 10
504611.00
 20
1143088.00
  0
VERTEX
  8
BEAVER_DAM
 10
504610.00
 20
1143076.00
  0
SEQEND
  8
BEAVER_DAM
  0
POLYLINE
  8
RIVER_STREAM_SINGLE_LINE
 66
     1
 62
     5
  6
CONTINUOUS
  0
VERTEX
  8
RIVER_STREAM_SINGLE_LINE
 10
505106.00
 20
1143155.00
  0
VERTEX
  8
RIVER_STREAM_SINGLE_LINE
 10
505085.00
 20
1143144.00
  0
VERTEX
  8
RIVER_STREAM_SINGLE_LINE
 10
505061.00
 20
1143130.00
  0
VERTEX
  8
RIVER_STREAM_SINGLE_LINE
 10
505039.00
 20
1143119.00
  0
VERTEX
  8
RIVER_STREAM_SINGLE_LINE
 10
505018.00
 20
1143110.00
  0
VERTEX
  8
RIVER_STREAM_SINGLE_LINE
 10
504993.00
 20
1143107.00
  0
VERTEX
  8
RIVER_STREAM_SINGLE_LINE
 10
504974.00
 20
1143107.00
  0
VERTEX
  8
RIVER_STREAM_SINGLE_LINE
 10
504959.00
 20
1143104.00
  0
VERTEX
  8
RIVER_STREAM_SINGLE_LINE
 10
504945.00
 20
1143096.00
  0
VERTEX
  8
RIVER_STREAM_SINGLE_LINE
 10
504922.00
 20
1143084.00
  0
VERTEX
  8
RIVER_STREAM_SINGLE_LINE
 10
504899.00
 20
1143076.00
  0
VERTEX
  8
RIVER_STREAM_SINGLE_LINE
 10
504876.00
 20
1143071.00
  0
VERTEX
  8
RIVER_STREAM_SINGLE_LINE
 10
504850.00
 20
1143067.00
  0
VERTEX
  8
RIVER_STREAM_SINGLE_LINE
 10
504829.00
 20
1143069.00
  0
VERTEX
  8
RIVER_STREAM_SINGLE_LINE
 10
504809.00
 20
1143076.00
  0
VERTEX
  8
RIVER_STREAM_SINGLE_LINE
 10
504789.00
 20
1143087.00
  0
VERTEX
  8
RIVER_STREAM_SINGLE_LINE
 10
504778.00
 20
1143094.00
  0
VERTEX
  8
RIVER_STREAM_SINGLE_LINE
 10
504754.00
 20
1143102.00
  0
SEQEND
  8
RIVER_STREAM_SINGLE_LINE
  0
POLYLINE
  8
RIVER_STREAM_SINGLE_LINE
 66
     1
 62
     5
  6
CONTINUOUS
  0
VERTEX
  8
RIVER_STREAM_SINGLE_LINE
 10
509272.00
 20
1143067.00
  0
VERTEX
  8
RIVER_STREAM_SINGLE_LINE
 10
509281.00
 20
1143091.00
  0
VERTEX
  8
RIVER_STREAM_SINGLE_LINE
 10
509284.00
 20
1143095.00
  0
VERTEX
  8
RIVER_STREAM_SINGLE_LINE
 10
509296.00
 20
1143085.00
  0
VERTEX
  8
RIVER_STREAM_SINGLE_LINE
 10
509298.00
 20
1143094.00
  0
VERTEX
  8
RIVER_STREAM_SINGLE_LINE
 10
509294.00
 20
1143105.00
  0
VERTEX
  8
RIVER_STREAM_SINGLE_LINE
 10
509291.00
 20
1143115.00
  0
VERTEX
  8
RIVER_STREAM_SINGLE_LINE
 10
509294.00
 20
1143121.00
  0
VERTEX
  8
RIVER_STREAM_SINGLE_LINE
 10
509306.00
 20
1143125.00
  0
VERTEX
  8
RIVER_STREAM_SINGLE_LINE
 10
509314.00
 20
1143135.00
  0
VERTEX
  8
RIVER_STREAM_SINGLE_LINE
 10
509327.00
 20
1143154.00
  0
VERTEX
  8
RIVER_STREAM_SINGLE_LINE
 10
509333.00
 20
1143174.00
  0
VERTEX
  8
RIVER_STREAM_SINGLE_LINE
 10
509332.00
 20
1143185.00
  0
VERTEX
  8
RIVER_STREAM_SINGLE_LINE
 10
509335.00
 20
1143195.00
  0
VERTEX
  8
RIVER_STREAM_SINGLE_LINE
 10
509344.00
 20
1143201.00
  0
VERTEX
  8
RIVER_STREAM_SINGLE_LINE
 10
509353.00
 20
1143207.00
  0
VERTEX
  8
RIVER_STREAM_SINGLE_LINE
 10
509358.00
 20
1143217.00
  0
VERTEX
  8
RIVER_STREAM_SINGLE_LINE
 10
509361.00
 20
1143230.00
  0
VERTEX
  8
RIVER_STREAM_SINGLE_LINE
 10
509367.00
 20
1143237.00
  0
VERTEX
  8
RIVER_STREAM_SINGLE_LINE
 10
509378.00
 20
1143242.00
  0
VERTEX
  8
RIVER_STREAM_SINGLE_LINE
 10
509398.00
 20
1143242.00
  0
VERTEX
  8
RIVER_STREAM_SINGLE_LINE
 10
509412.00
 20
1143245.00
  0
VERTEX
  8
RIVER_STREAM_SINGLE_LINE
 10
509424.00
 20
1143252.00
  0
VERTEX
  8
RIVER_STREAM_SINGLE_LINE
 10
509430.00
 20
1143258.00
  0
VERTEX
  8
RIVER_STREAM_SINGLE_LINE
 10
509432.00
 20
1143276.00
  0
VERTEX
  8
RIVER_STREAM_SINGLE_LINE
 10
509431.00
 20
1143288.00
  0
VERTEX
  8
RIVER_STREAM_SINGLE_LINE
 10
509433.00
 20
1143298.00
  0
VERTEX
  8
RIVER_STREAM_SINGLE_LINE
 10
509439.00
 20
1143304.00
  0
VERTEX
  8
RIVER_STREAM_SINGLE_LINE
 10
509454.00
 20
1143311.00
  0
VERTEX
  8
RIVER_STREAM_SINGLE_LINE
 10
509471.00
 20
1143324.00
  0
VERTEX
  8
RIVER_STREAM_SINGLE_LINE
 10
509485.00
 20
1143344.00
  0
VERTEX
  8
RIVER_STREAM_SINGLE_LINE
 10
509496.00
 20
1143363.00
  0
VERTEX
  8
RIVER_STREAM_SINGLE_LINE
 10
509501.00
 20
1143369.00
  0
VERTEX
  8
RIVER_STREAM_SINGLE_LINE
 10
509501.00
 20
1143380.00
  0
VERTEX
  8
RIVER_STREAM_SINGLE_LINE
 10
509499.00
 20
1143390.00
  0
VERTEX
  8
RIVER_STREAM_SINGLE_LINE
 10
509496.00
 20
1143400.00
  0
VERTEX
  8
RIVER_STREAM_SINGLE_LINE
 10
509504.00
 20
1143407.00
  0
VERTEX
  8
RIVER_STREAM_SINGLE_LINE
 10
509514.00
 20
1143416.00
  0
VERTEX
  8
RIVER_STREAM_SINGLE_LINE
 10
509519.00
 20
1143431.00
  0
VERTEX
  8
RIVER_STREAM_SINGLE_LINE
 10
509517.00
 20
1143443.00
  0
VERTEX
  8
RIVER_STREAM_SINGLE_LINE
 10
509516.00
 20
1143456.00
  0
VERTEX
  8
RIVER_STREAM_SINGLE_LINE
 10
509524.00
 20
1143465.00
  0
VERTEX
  8
RIVER_STREAM_SINGLE_LINE
 10
509537.00
 20
1143466.00
  0
VERTEX
  8
RIVER_STREAM_SINGLE_LINE
 10
509548.00
 20
1143470.00
  0
VERTEX
  8
RIVER_STREAM_SINGLE_LINE
 10
509558.00
 20
1143478.00
  0
VERTEX
  8
RIVER_STREAM_SINGLE_LINE
 10
509566.00
 20
1143490.00
  0
VERTEX
  8
RIVER_STREAM_SINGLE_LINE
 10
509579.00
 20
1143503.00
  0
VERTEX
  8
RIVER_STREAM_SINGLE_LINE
 10
509588.00
 20
1143512.00
  0
VERTEX
  8
RIVER_STREAM_SINGLE_LINE
 10
509602.00
 20
1143518.00
  0
VERTEX
  8
RIVER_STREAM_SINGLE_LINE
 10
509612.00
 20
1143515.00
  0
VERTEX
  8
RIVER_STREAM_SINGLE_LINE
 10
509624.00
 20
1143507.00
  0
VERTEX
  8
RIVER_STREAM_SINGLE_LINE
 10
509638.00
 20
1143503.00
  0
VERTEX
  8
RIVER_STREAM_SINGLE_LINE
 10
509646.00
 20
1143504.00
  0
VERTEX
  8
RIVER_STREAM_SINGLE_LINE
 10
509653.00
 20
1143508.00
  0
SEQEND
  8
RIVER_STREAM_SINGLE_LINE
  0
POLYLINE
  8
BEAVER_DAM
 66
     1
 62
     2
  6
CONTINUOUS
  0
VERTEX
  8
BEAVER_DAM
 10
509259.00
 20
1143089.00
  0
VERTEX
  8
BEAVER_DAM
 10
509266.00
 20
1143076.00
  0
VERTEX
  8
BEAVER_DAM
 10
509272.00
 20
1143067.00
  0
SEQEND
  8
BEAVER_DAM
  0
POLYLINE
  8
BEAVER_DAM
 66
     1
 62
     2
  6
CONTINUOUS
  0
VERTEX
  8
BEAVER_DAM
 10
504610.00
 20
1143076.00
  0
VERTEX
  8
BEAVER_DAM
 10
504610.00
 20
1143066.00
  0
SEQEND
  8
BEAVER_DAM
  0
POLYLINE
  8
BEAVER_DAM
 66
     1
 62
     2
  6
CONTINUOUS
  0
VERTEX
  8
BEAVER_DAM
 10
509272.00
 20
1143067.00
  0
VERTEX
  8
BEAVER_DAM
 10
509282.00
 20
1143059.00
  0
VERTEX
  8
BEAVER_DAM
 10
509296.00
 20
1143061.00
  0
VERTEX
  8
BEAVER_DAM
 10
509312.00
 20
1143061.00
  0
VERTEX
  8
BEAVER_DAM
 10
509324.00
 20
1143062.00
  0
VERTEX
  8
BEAVER_DAM
 10
509326.00
 20
1143054.00
  0
SEQEND
  8
BEAVER_DAM
  0
POLYLINE
  8
BEAVER_DAM
 66
     1
 62
     2
  6
CONTINUOUS
  0
VERTEX
  8
BEAVER_DAM
 10
504610.00
 20
1143066.00
  0
VERTEX
  8
BEAVER_DAM
 10
504610.00
 20
1143060.00
  0
VERTEX
  8
BEAVER_DAM
 10
504617.00
 20
1143034.00
  0
SEQEND
  8
BEAVER_DAM
  0
POLYLINE
  8
BEAVER_DAM
 66
     1
 62
     2
  6
CONTINUOUS
  0
VERTEX
  8
BEAVER_DAM
 10
504617.00
 20
1143034.00
  0
VERTEX
  8
BEAVER_DAM
 10
504627.00
 20
1143000.00
  0
SEQEND
  8
BEAVER_DAM
  0
POLYLINE
  8
RIVER_STREAM_SINGLE_LINE
 66
     1
 62
     5
  6
CONTINUOUS
  0
VERTEX
  8
RIVER_STREAM_SINGLE_LINE
 10
504433.00
 20
1142986.00
  0
VERTEX
  8
RIVER_STREAM_SINGLE_LINE
 10
504441.00
 20
1142982.00
  0
VERTEX
  8
RIVER_STREAM_SINGLE_LINE
 10
504449.00
 20
1142977.00
  0
SEQEND
  8
RIVER_STREAM_SINGLE_LINE
  0
POLYLINE
  8
RIVER_STREAM_SINGLE_LINE
 66
     1
 62
     5
  6
CONTINUOUS
  0
VERTEX
  8
RIVER_STREAM_SINGLE_LINE
 10
504449.00
 20
1142977.00
  0
VERTEX
  8
RIVER_STREAM_SINGLE_LINE
 10
504470.00
 20
1142969.00
  0
VERTEX
  8
RIVER_STREAM_SINGLE_LINE
 10
504490.00
 20
1142963.00
  0
VERTEX
  8
RIVER_STREAM_SINGLE_LINE
 10
504507.00
 20
1142962.00
  0
VERTEX
  8
RIVER_STREAM_SINGLE_LINE
 10
504522.00
 20
1142972.00
  0
VERTEX
  8
RIVER_STREAM_SINGLE_LINE
 10
504540.00
 20
1142990.00
  0
VERTEX
  8
RIVER_STREAM_SINGLE_LINE
 10
504560.00
 20
1143010.00
  0
VERTEX
  8
RIVER_STREAM_SINGLE_LINE
 10
504588.00
 20
1143025.00
  0
VERTEX
  8
RIVER_STREAM_SINGLE_LINE
 10
504617.00
 20
1143034.00
  0
SEQEND
  8
RIVER_STREAM_SINGLE_LINE
  0
POLYLINE
  8
BEAVER_DAM
 66
     1
 62
     2
  6
CONTINUOUS
  0
VERTEX
  8
BEAVER_DAM
 10
509641.00
 20
1142957.00
  0
VERTEX
  8
BEAVER_DAM
 10
509650.00
 20
1142958.00
  0
VERTEX
  8
BEAVER_DAM
 10
509658.00
 20
1142954.00
  0
SEQEND
  8
BEAVER_DAM
  0
POLYLINE
  8
BEAVER_DAM
 66
     1
 62
     2
  6
CONTINUOUS
  0
VERTEX
  8
BEAVER_DAM
 10
509636.00
 20
1142935.00
  0
VERTEX
  8
BEAVER_DAM
 10
509651.00
 20
1142932.00
  0
SEQEND
  8
BEAVER_DAM
  0
POLYLINE
  8
RIVER_STREAM_SINGLE_LINE
 66
     1
 62
     5
  6
CONTINUOUS
  0
VERTEX
  8
RIVER_STREAM_SINGLE_LINE
 10
508944.00
 20
1142437.00
  0
VERTEX
  8
RIVER_STREAM_SINGLE_LINE
 10
508957.00
 20
1142441.00
  0
VERTEX
  8
RIVER_STREAM_SINGLE_LINE
 10
508969.00
 20
1142450.00
  0
VERTEX
  8
RIVER_STREAM_SINGLE_LINE
 10
508978.00
 20
1142465.00
  0
VERTEX
  8
RIVER_STREAM_SINGLE_LINE
 10
508985.00
 20
1142493.00
  0
VERTEX
  8
RIVER_STREAM_SINGLE_LINE
 10
508988.00
 20
1142513.00
  0
VERTEX
  8
RIVER_STREAM_SINGLE_LINE
 10
508992.00
 20
1142528.00
  0
VERTEX
  8
RIVER_STREAM_SINGLE_LINE
 10
508996.00
 20
1142542.00
  0
VERTEX
  8
RIVER_STREAM_SINGLE_LINE
 10
509005.00
 20
1142551.00
  0
VERTEX
  8
RIVER_STREAM_SINGLE_LINE
 10
509019.00
 20
1142555.00
  0
VERTEX
  8
RIVER_STREAM_SINGLE_LINE
 10
509028.00
 20
1142557.00
  0
VERTEX
  8
RIVER_STREAM_SINGLE_LINE
 10
509041.00
 20
1142586.00
  0
VERTEX
  8
RIVER_STREAM_SINGLE_LINE
 10
509049.00
 20
1142611.00
  0
VERTEX
  8
RIVER_STREAM_SINGLE_LINE
 10
509050.00
 20
1142628.00
  0
VERTEX
  8
RIVER_STREAM_SINGLE_LINE
 10
509054.00
 20
1142643.00
  0
VERTEX
  8
RIVER_STREAM_SINGLE_LINE
 10
509060.00
 20
1142660.00
  0
VERTEX
  8
RIVER_STREAM_SINGLE_LINE
 10
509068.00
 20
1142668.00
  0
VERTEX
  8
RIVER_STREAM_SINGLE_LINE
 10
509075.00
 20
1142675.00
  0
VERTEX
  8
RIVER_STREAM_SINGLE_LINE
 10
509078.00
 20
1142686.00
  0
VERTEX
  8
RIVER_STREAM_SINGLE_LINE
 10
509082.00
 20
1142701.00
  0
VERTEX
  8
RIVER_STREAM_SINGLE_LINE
 10
509083.00
 20
1142712.00
  0
SEQEND
  8
RIVER_STREAM_SINGLE_LINE
  0
POLYLINE
  8
BEAVER_DAM
 66
     1
 62
     2
  6
CONTINUOUS
  0
VERTEX
  8
BEAVER_DAM
 10
507972.00
 20
1142046.00
  0
VERTEX
  8
BEAVER_DAM
 10
507973.00
 20
1142030.00
  0
VERTEX
  8
BEAVER_DAM
 10
507997.00
 20
1142001.00
  0
VERTEX
  8
BEAVER_DAM
 10
508004.00
 20
1141989.00
  0
SEQEND
  8
BEAVER_DAM
  0
POLYLINE
  8
RIVER_STREAM_SINGLE_LINE
 66
     1
 62
     5
  6
CONTINUOUS
  0
VERTEX
  8
RIVER_STREAM_SINGLE_LINE
 10
505530.00
 20
1141968.00
  0
VERTEX
  8
RIVER_STREAM_SINGLE_LINE
 10
505541.00
 20
1141961.00
  0
VERTEX
  8
RIVER_STREAM_SINGLE_LINE
 10
505550.00
 20
1141956.00
  0
VERTEX
  8
RIVER_STREAM_SINGLE_LINE
 10
505574.00
 20
1141956.00
  0
VERTEX
  8
RIVER_STREAM_SINGLE_LINE
 10
505597.00
 20
1141958.00
  0
VERTEX
  8
RIVER_STREAM_SINGLE_LINE
 10
505606.00
 20
1141971.00
  0
SEQEND
  8
RIVER_STREAM_SINGLE_LINE
  0
POLYLINE
  8
BEAVER_DAM
 66
     1
 62
     2
  6
CONTINUOUS
  0
VERTEX
  8
BEAVER_DAM
 10
509225.00
 20
1141068.00
  0
VERTEX
  8
BEAVER_DAM
 10
509240.00
 20
1141058.00
  0
SEQEND
  8
BEAVER_DAM
  0
POLYLINE
  8
RIVER_STREAM_SINGLE_LINE
 66
     1
 62
     5
  6
CONTINUOUS
  0
VERTEX
  8
RIVER_STREAM_SINGLE_LINE
 10
500843.00
 20
1140669.00
  0
VERTEX
  8
RIVER_STREAM_SINGLE_LINE
 10
500870.00
 20
1140682.00
  0
VERTEX
  8
RIVER_STREAM_SINGLE_LINE
 10
500884.00
 20
1140694.00
  0
VERTEX
  8
RIVER_STREAM_SINGLE_LINE
 10
500899.00
 20
1140713.00
  0
VERTEX
  8
RIVER_STREAM_SINGLE_LINE
 10
500914.00
 20
1140730.00
  0
VERTEX
  8
RIVER_STREAM_SINGLE_LINE
 10
500940.00
 20
1140739.00
  0
VERTEX
  8
RIVER_STREAM_SINGLE_LINE
 10
500977.00
 20
1140760.00
  0
VERTEX
  8
RIVER_STREAM_SINGLE_LINE
 10
501003.00
 20
1140777.00
  0
VERTEX
  8
RIVER_STREAM_SINGLE_LINE
 10
501026.00
 20
1140794.00
  0
VERTEX
  8
RIVER_STREAM_SINGLE_LINE
 10
501042.00
 20
1140809.00
  0
VERTEX
  8
RIVER_STREAM_SINGLE_LINE
 10
501079.00
 20
1140819.00
  0
VERTEX
  8
RIVER_STREAM_SINGLE_LINE
 10
501101.00
 20
1140829.00
  0
VERTEX
  8
RIVER_STREAM_SINGLE_LINE
 10
501126.00
 20
1140844.00
  0
VERTEX
  8
RIVER_STREAM_SINGLE_LINE
 10
501134.00
 20
1140853.00
  0
SEQEND
  8
RIVER_STREAM_SINGLE_LINE
  0
POLYLINE
  8
RIVER_STREAM_SINGLE_LINE
 66
     1
 62
     5
  6
CONTINUOUS
  0
VERTEX
  8
RIVER_STREAM_SINGLE_LINE
 10
508962.00
 20
1140636.00
  0
VERTEX
  8
RIVER_STREAM_SINGLE_LINE
 10
508972.00
 20
1140665.00
  0
VERTEX
  8
RIVER_STREAM_SINGLE_LINE
 10
508989.00
 20
1140680.00
  0
VERTEX
  8
RIVER_STREAM_SINGLE_LINE
 10
509007.00
 20
1140690.00
  0
VERTEX
  8
RIVER_STREAM_SINGLE_LINE
 10
509021.00
 20
1140701.00
  0
VERTEX
  8
RIVER_STREAM_SINGLE_LINE
 10
509031.00
 20
1140721.00
  0
VERTEX
  8
RIVER_STREAM_SINGLE_LINE
 10
509040.00
 20
1140750.00
  0
VERTEX
  8
RIVER_STREAM_SINGLE_LINE
 10
509049.00
 20
1140773.00
  0
VERTEX
  8
RIVER_STREAM_SINGLE_LINE
 10
509061.00
 20
1140790.00
  0
VERTEX
  8
RIVER_STREAM_SINGLE_LINE
 10
509077.00
 20
1140806.00
  0
VERTEX
  8
RIVER_STREAM_SINGLE_LINE
 10
509093.00
 20
1140823.00
  0
VERTEX
  8
RIVER_STREAM_SINGLE_LINE
 10
509110.00
 20
1140837.00
  0
VERTEX
  8
RIVER_STREAM_SINGLE_LINE
 10
509127.00
 20
1140854.00
  0
SEQEND
  8
RIVER_STREAM_SINGLE_LINE
  0
POLYLINE
  8
BEAVER_DAM
 66
     1
 62
     2
  6
CONTINUOUS
  0
VERTEX
  8
BEAVER_DAM
 10
500587.00
 20
1140550.00
  0
VERTEX
  8
BEAVER_DAM
 10
500584.00
 20
1140529.00
  0
VERTEX
  8
BEAVER_DAM
 10
500603.00
 20
1140511.00
  0
SEQEND
  8
BEAVER_DAM
  0
POLYLINE
  8
RIVER_STREAM_SINGLE_LINE
 66
     1
 62
     5
  6
CONTINUOUS
  0
VERTEX
  8
RIVER_STREAM_SINGLE_LINE
 10
505352.00
 20
1149749.00
  0
VERTEX
  8
RIVER_STREAM_SINGLE_LINE
 10
505341.00
 20
1149746.00
  0
VERTEX
  8
RIVER_STREAM_SINGLE_LINE
 10
505333.00
 20
1149745.00
  0
VERTEX
  8
RIVER_STREAM_SINGLE_LINE
 10
505331.00
 20
1149746.00
  0
VERTEX
  8
RIVER_STREAM_SINGLE_LINE
 10
505326.00
 20
1149744.00
  0
VERTEX
  8
RIVER_STREAM_SINGLE_LINE
 10
505321.00
 20
1149742.00
  0
VERTEX
  8
RIVER_STREAM_SINGLE_LINE
 10
505319.00
 20
1149742.00
  0
VERTEX
  8
RIVER_STREAM_SINGLE_LINE
 10
505317.00
 20
1149741.00
  0
VERTEX
  8
RIVER_STREAM_SINGLE_LINE
 10
505314.00
 20
1149737.00
  0
VERTEX
  8
RIVER_STREAM_SINGLE_LINE
 10
505311.00
 20
1149736.00
  0
VERTEX
  8
RIVER_STREAM_SINGLE_LINE
 10
505309.00
 20
1149733.00
  0
VERTEX
  8
RIVER_STREAM_SINGLE_LINE
 10
505308.00
 20
1149732.00
  0
VERTEX
  8
RIVER_STREAM_SINGLE_LINE
 10
505307.00
 20
1149728.00
  0
VERTEX
  8
RIVER_STREAM_SINGLE_LINE
 10
505308.00
 20
1149724.00
  0
VERTEX
  8
RIVER_STREAM_SINGLE_LINE
 10
505308.00
 20
1149719.00
  0
VERTEX
  8
RIVER_STREAM_SINGLE_LINE
 10
505307.00
 20
1149713.00
  0
VERTEX
  8
RIVER_STREAM_SINGLE_LINE
 10
505308.00
 20
1149708.00
  0
VERTEX
  8
RIVER_STREAM_SINGLE_LINE
 10
505309.00
 20
1149704.00
  0
VERTEX
  8
RIVER_STREAM_SINGLE_LINE
 10
505309.00
 20
1149699.00
  0
VERTEX
  8
RIVER_STREAM_SINGLE_LINE
 10
505311.00
 20
1149693.00
  0
VERTEX
  8
RIVER_STREAM_SINGLE_LINE
 10
505312.00
 20
1149688.00
  0
VERTEX
  8
RIVER_STREAM_SINGLE_LINE
 10
505315.00
 20
1149682.00
  0
VERTEX
  8
RIVER_STREAM_SINGLE_LINE
 10
505317.00
 20
1149681.00
  0
VERTEX
  8
RIVER_STREAM_SINGLE_LINE
 10
505320.00
 20
1149675.00
  0
VERTEX
  8
RIVER_STREAM_SINGLE_LINE
 10
505321.00
 20
1149671.00
  0
VERTEX
  8
RIVER_STREAM_SINGLE_LINE
 10
505324.00
 20
1149663.00
  0
VERTEX
  8
RIVER_STREAM_SINGLE_LINE
 10
505325.00
 20
1149657.00
  0
VERTEX
  8
RIVER_STREAM_SINGLE_LINE
 10
505326.00
 20
1149654.00
  0
VERTEX
  8
RIVER_STREAM_SINGLE_LINE
 10
505330.00
 20
1149645.00
  0
VERTEX
  8
RIVER_STREAM_SINGLE_LINE
 10
505332.00
 20
1149641.00
  0
VERTEX
  8
RIVER_STREAM_SINGLE_LINE
 10
505334.00
 20
1149637.00
  0
VERTEX
  8
RIVER_STREAM_SINGLE_LINE
 10
505337.00
 20
1149632.00
  0
VERTEX
  8
RIVER_STREAM_SINGLE_LINE
 10
505340.00
 20
1149627.00
  0
VERTEX
  8
RIVER_STREAM_SINGLE_LINE
 10
505343.00
 20
1149623.00
  0
VERTEX
  8
RIVER_STREAM_SINGLE_LINE
 10
505348.00
 20
1149617.00
  0
VERTEX
  8
RIVER_STREAM_SINGLE_LINE
 10
505353.00
 20
1149614.00
  0
VERTEX
  8
RIVER_STREAM_SINGLE_LINE
 10
505358.00
 20
1149610.00
  0
VERTEX
  8
RIVER_STREAM_SINGLE_LINE
 10
505362.00
 20
1149607.00
  0
VERTEX
  8
RIVER_STREAM_SINGLE_LINE
 10
505366.00
 20
1149603.00
  0
VERTEX
  8
RIVER_STREAM_SINGLE_LINE
 10
505371.00
 20
1149598.00
  0
VERTEX
  8
RIVER_STREAM_SINGLE_LINE
 10
505372.00
 20
1149596.00
  0
VERTEX
  8
RIVER_STREAM_SINGLE_LINE
 10
505374.00
 20
1149593.00
  0
VERTEX
  8
RIVER_STREAM_SINGLE_LINE
 10
505377.00
 20
1149589.00
  0
VERTEX
  8
RIVER_STREAM_SINGLE_LINE
 10
505379.00
 20
1149585.00
  0
VERTEX
  8
RIVER_STREAM_SINGLE_LINE
 10
505381.00
 20
1149580.00
  0
VERTEX
  8
RIVER_STREAM_SINGLE_LINE
 10
505382.03
 20
1149575.38
  0
SEQEND
  8
RIVER_STREAM_SINGLE_LINE
  0
POLYLINE
  8
RIVER_STREAM_SINGLE_LINE
 66
     1
 62
     5
  6
CONTINUOUS
  0
VERTEX
  8
RIVER_STREAM_SINGLE_LINE
 10
507607.00
 20
1141309.00
  0
VERTEX
  8
RIVER_STREAM_SINGLE_LINE
 10
507634.00
 20
1141337.00
  0
VERTEX
  8
RIVER_STREAM_SINGLE_LINE
 10
507655.00
 20
1141359.00
  0
VERTEX
  8
RIVER_STREAM_SINGLE_LINE
 10
507668.00
 20
1141370.00
  0
VERTEX
  8
RIVER_STREAM_SINGLE_LINE
 10
507681.00
 20
1141377.00
  0
VERTEX
  8
RIVER_STREAM_SINGLE_LINE
 10
507694.00
 20
1141383.00
  0
VERTEX
  8
RIVER_STREAM_SINGLE_LINE
 10
507706.00
 20
1141392.00
  0
VERTEX
  8
RIVER_STREAM_SINGLE_LINE
 10
507715.00
 20
1141404.00
  0
VERTEX
  8
RIVER_STREAM_SINGLE_LINE
 10
507718.00
 20
1141421.00
  0
VERTEX
  8
RIVER_STREAM_SINGLE_LINE
 10
507716.00
 20
1141434.00
  0
VERTEX
  8
RIVER_STREAM_SINGLE_LINE
 10
507715.00
 20
1141448.00
  0
VERTEX
  8
RIVER_STREAM_SINGLE_LINE
 10
507721.00
 20
1141456.00
  0
VERTEX
  8
RIVER_STREAM_SINGLE_LINE
 10
507734.00
 20
1141454.00
  0
VERTEX
  8
RIVER_STREAM_SINGLE_LINE
 10
507743.00
 20
1141457.00
  0
VERTEX
  8
RIVER_STREAM_SINGLE_LINE
 10
507755.00
 20
1141468.00
  0
VERTEX
  8
RIVER_STREAM_SINGLE_LINE
 10
507760.00
 20
1141479.00
  0
SEQEND
  8
RIVER_STREAM_SINGLE_LINE
  0
POLYLINE
  8
RIVER_STREAM_SINGLE_LINE
 66
     1
 62
     5
  6
CONTINUOUS
  0
VERTEX
  8
RIVER_STREAM_SINGLE_LINE
 10
507211.00
 20
1140949.00
  0
VERTEX
  8
RIVER_STREAM_SINGLE_LINE
 10
507220.00
 20
1140968.00
  0
VERTEX
  8
RIVER_STREAM_SINGLE_LINE
 10
507224.00
 20
1140985.00
  0
VERTEX
  8
RIVER_STREAM_SINGLE_LINE
 10
507233.00
 20
1141000.00
  0
VERTEX
  8
RIVER_STREAM_SINGLE_LINE
 10
507239.00
 20
1141003.00
  0
VERTEX
  8
RIVER_STREAM_SINGLE_LINE
 10
507259.00
 20
1141003.00
  0
VERTEX
  8
RIVER_STREAM_SINGLE_LINE
 10
507277.00
 20
1141008.00
  0
VERTEX
  8
RIVER_STREAM_SINGLE_LINE
 10
507288.00
 20
1141013.00
  0
VERTEX
  8
RIVER_STREAM_SINGLE_LINE
 10
507297.00
 20
1141022.00
  0
VERTEX
  8
RIVER_STREAM_SINGLE_LINE
 10
507307.00
 20
1141049.00
  0
VERTEX
  8
RIVER_STREAM_SINGLE_LINE
 10
507313.00
 20
1141073.00
  0
VERTEX
  8
RIVER_STREAM_SINGLE_LINE
 10
507321.00
 20
1141089.00
  0
VERTEX
  8
RIVER_STREAM_SINGLE_LINE
 10
507333.00
 20
1141090.00
  0
VERTEX
  8
RIVER_STREAM_SINGLE_LINE
 10
507343.00
 20
1141093.00
  0
VERTEX
  8
RIVER_STREAM_SINGLE_LINE
 10
507344.00
 20
1141106.00
  0
VERTEX
  8
RIVER_STREAM_SINGLE_LINE
 10
507346.00
 20
1141121.00
  0
VERTEX
  8
RIVER_STREAM_SINGLE_LINE
 10
507352.00
 20
1141129.00
  0
VERTEX
  8
RIVER_STREAM_SINGLE_LINE
 10
507363.00
 20
1141133.00
  0
VERTEX
  8
RIVER_STREAM_SINGLE_LINE
 10
507372.00
 20
1141143.00
  0
VERTEX
  8
RIVER_STREAM_SINGLE_LINE
 10
507377.00
 20
1141158.00
  0
VERTEX
  8
RIVER_STREAM_SINGLE_LINE
 10
507381.00
 20
1141172.00
  0
VERTEX
  8
RIVER_STREAM_SINGLE_LINE
 10
507389.00
 20
1141184.00
  0
VERTEX
  8
RIVER_STREAM_SINGLE_LINE
 10
507405.00
 20
1141193.00
  0
VERTEX
  8
RIVER_STREAM_SINGLE_LINE
 10
507419.00
 20
1141206.00
  0
VERTEX
  8
RIVER_STREAM_SINGLE_LINE
 10
507435.00
 20
1141215.00
  0
VERTEX
  8
RIVER_STREAM_SINGLE_LINE
 10
507433.00
 20
1141224.00
  0
VERTEX
  8
RIVER_STREAM_SINGLE_LINE
 10
507431.00
 20
1141238.00
  0
VERTEX
  8
RIVER_STREAM_SINGLE_LINE
 10
507436.00
 20
1141242.00
  0
VERTEX
  8
RIVER_STREAM_SINGLE_LINE
 10
507446.00
 20
1141240.00
  0
VERTEX
  8
RIVER_STREAM_SINGLE_LINE
 10
507455.00
 20
1141238.00
  0
VERTEX
  8
RIVER_STREAM_SINGLE_LINE
 10
507461.00
 20
1141239.00
  0
VERTEX
  8
RIVER_STREAM_SINGLE_LINE
 10
507465.00
 20
1141250.00
  0
VERTEX
  8
RIVER_STREAM_SINGLE_LINE
 10
507469.00
 20
1141258.00
  0
VERTEX
  8
RIVER_STREAM_SINGLE_LINE
 10
507475.00
 20
1141262.00
  0
VERTEX
  8
RIVER_STREAM_SINGLE_LINE
 10
507482.00
 20
1141266.00
  0
VERTEX
  8
RIVER_STREAM_SINGLE_LINE
 10
507500.00
 20
1141259.00
  0
VERTEX
  8
RIVER_STREAM_SINGLE_LINE
 10
507507.00
 20
1141256.00
  0
VERTEX
  8
RIVER_STREAM_SINGLE_LINE
 10
507520.00
 20
1141266.00
  0
VERTEX
  8
RIVER_STREAM_SINGLE_LINE
 10
507533.00
 20
1141295.00
  0
VERTEX
  8
RIVER_STREAM_SINGLE_LINE
 10
507541.00
 20
1141304.00
  0
VERTEX
  8
RIVER_STREAM_SINGLE_LINE
 10
507550.00
 20
1141309.00
  0
VERTEX
  8
RIVER_STREAM_SINGLE_LINE
 10
507557.00
 20
1141300.00
  0
VERTEX
  8
RIVER_STREAM_SINGLE_LINE
 10
507562.00
 20
1141296.00
  0
VERTEX
  8
RIVER_STREAM_SINGLE_LINE
 10
507572.00
 20
1141300.00
  0
VERTEX
  8
RIVER_STREAM_SINGLE_LINE
 10
507575.00
 20
1141311.00
  0
VERTEX
  8
RIVER_STREAM_SINGLE_LINE
 10
507579.00
 20
1141319.00
  0
VERTEX
  8
RIVER_STREAM_SINGLE_LINE
 10
507588.00
 20
1141324.00
  0
VERTEX
  8
RIVER_STREAM_SINGLE_LINE
 10
507598.00
 20
1141315.00
  0
VERTEX
  8
RIVER_STREAM_SINGLE_LINE
 10
507607.00
 20
1141309.00
  0
SEQEND
  8
RIVER_STREAM_SINGLE_LINE
  0
POLYLINE
  8
BEAVER_DAM
 66
     1
 62
     2
  6
CONTINUOUS
  0
VERTEX
  8
BEAVER_DAM
 10
507173.00
 20
1141040.00
  0
VERTEX
  8
BEAVER_DAM
 10
507177.00
 20
1141016.00
  0
VERTEX
  8
BEAVER_DAM
 10
507175.00
 20
1140995.00
  0
VERTEX
  8
BEAVER_DAM
 10
507173.00
 20
1140980.00
  0
VERTEX
  8
BEAVER_DAM
 10
507174.00
 20
1140974.00
  0
VERTEX
  8
BEAVER_DAM
 10
507178.00
 20
1140968.00
  0
VERTEX
  8
BEAVER_DAM
 10
507185.00
 20
1140969.00
  0
VERTEX
  8
BEAVER_DAM
 10
507196.00
 20
1140966.00
  0
VERTEX
  8
BEAVER_DAM
 10
507203.00
 20
1140962.00
  0
VERTEX
  8
BEAVER_DAM
 10
507211.00
 20
1140949.00
  0
SEQEND
  8
BEAVER_DAM
  0
POLYLINE
  8
BEAVER_DAM
 66
     1
 62
     2
  6
CONTINUOUS
  0
VERTEX
  8
BEAVER_DAM
 10
507211.00
 20
1140949.00
  0
VERTEX
  8
BEAVER_DAM
 10
507229.00
 20
1140933.00
  0
SEQEND
  8
BEAVER_DAM
  0
POLYLINE
  8
BEAVER_DAM
 66
     1
 62
     2
  6
CONTINUOUS
  0
VERTEX
  8
BEAVER_DAM
 10
507573.00
 20
1140927.00
  0
VERTEX
  8
BEAVER_DAM
 10
507593.00
 20
1140908.00
  0
SEQEND
  8
BEAVER_DAM
  0
POLYLINE
  8
RIVER_STREAM_SINGLE_LINE
 66
     1
 62
     5
  6
CONTINUOUS
  0
VERTEX
  8
RIVER_STREAM_SINGLE_LINE
 10
507607.00
 20
1141309.00
  0
VERTEX
  8
RIVER_STREAM_SINGLE_LINE
 10
507606.00
 20
1141285.00
  0
VERTEX
  8
RIVER_STREAM_SINGLE_LINE
 10
507606.00
 20
1141276.00
  0
VERTEX
  8
RIVER_STREAM_SINGLE_LINE
 10
507608.00
 20
1141265.00
  0
VERTEX
  8
RIVER_STREAM_SINGLE_LINE
 10
507608.00
 20
1141255.00
  0
VERTEX
  8
RIVER_STREAM_SINGLE_LINE
 10
507606.00
 20
1141250.00
  0
VERTEX
  8
RIVER_STREAM_SINGLE_LINE
 10
507605.00
 20
1141241.00
  0
VERTEX
  8
RIVER_STREAM_SINGLE_LINE
 10
507605.00
 20
1141235.00
  0
VERTEX
  8
RIVER_STREAM_SINGLE_LINE
 10
507604.00
 20
1141230.00
  0
VERTEX
  8
RIVER_STREAM_SINGLE_LINE
 10
507603.00
 20
1141224.00
  0
VERTEX
  8
RIVER_STREAM_SINGLE_LINE
 10
507602.00
 20
1141219.00
  0
VERTEX
  8
RIVER_STREAM_SINGLE_LINE
 10
507600.00
 20
1141212.00
  0
VERTEX
  8
RIVER_STREAM_SINGLE_LINE
 10
507600.00
 20
1141208.00
  0
VERTEX
  8
RIVER_STREAM_SINGLE_LINE
 10
507599.00
 20
1141203.00
  0
VERTEX
  8
RIVER_STREAM_SINGLE_LINE
 10
507599.00
 20
1141197.00
  0
VERTEX
  8
RIVER_STREAM_SINGLE_LINE
 10
507598.00
 20
1141188.00
  0
VERTEX
  8
RIVER_STREAM_SINGLE_LINE
 10
507599.00
 20
1141182.00
  0
VERTEX
  8
RIVER_STREAM_SINGLE_LINE
 10
507599.00
 20
1141176.00
  0
VERTEX
  8
RIVER_STREAM_SINGLE_LINE
 10
507599.00
 20
1141166.00
  0
VERTEX
  8
RIVER_STREAM_SINGLE_LINE
 10
507599.00
 20
1141161.00
  0
VERTEX
  8
RIVER_STREAM_SINGLE_LINE
 10
507598.00
 20
1141152.00
  0
VERTEX
  8
RIVER_STREAM_SINGLE_LINE
 10
507597.00
 20
1141146.00
  0
VERTEX
  8
RIVER_STREAM_SINGLE_LINE
 10
507596.00
 20
1141140.00
  0
VERTEX
  8
RIVER_STREAM_SINGLE_LINE
 10
507597.00
 20
1141134.00
  0
VERTEX
  8
RIVER_STREAM_SINGLE_LINE
 10
507597.00
 20
1141127.00
  0
VERTEX
  8
RIVER_STREAM_SINGLE_LINE
 10
507598.00
 20
1141120.00
  0
VERTEX
  8
RIVER_STREAM_SINGLE_LINE
 10
507601.00
 20
1141115.00
  0
VERTEX
  8
RIVER_STREAM_SINGLE_LINE
 10
507605.00
 20
1141106.00
  0
VERTEX
  8
RIVER_STREAM_SINGLE_LINE
 10
507609.00
 20
1141101.00
  0
VERTEX
  8
RIVER_STREAM_SINGLE_LINE
 10
507614.00
 20
1141093.00
  0
VERTEX
  8
RIVER_STREAM_SINGLE_LINE
 10
507619.00
 20
1141084.00
  0
VERTEX
  8
RIVER_STREAM_SINGLE_LINE
 10
507620.00
 20
1141078.00
  0
VERTEX
  8
RIVER_STREAM_SINGLE_LINE
 10
507624.00
 20
1141071.00
  0
VERTEX
  8
RIVER_STREAM_SINGLE_LINE
 10
507628.00
 20
1141059.00
  0
VERTEX
  8
RIVER_STREAM_SINGLE_LINE
 10
507630.00
 20
1141052.00
  0
VERTEX
  8
RIVER_STREAM_SINGLE_LINE
 10
507632.00
 20
1141046.00
  0
VERTEX
  8
RIVER_STREAM_SINGLE_LINE
 10
507633.00
 20
1141037.00
  0
VERTEX
  8
RIVER_STREAM_SINGLE_LINE
 10
507635.00
 20
1141030.00
  0
VERTEX
  8
RIVER_STREAM_SINGLE_LINE
 10
507638.00
 20
1141023.00
  0
VERTEX
  8
RIVER_STREAM_SINGLE_LINE
 10
507640.00
 20
1141016.00
  0
VERTEX
  8
RIVER_STREAM_SINGLE_LINE
 10
507640.00
 20
1141012.00
  0
VERTEX
  8
RIVER_STREAM_SINGLE_LINE
 10
507640.00
 20
1141006.00
  0
VERTEX
  8
RIVER_STREAM_SINGLE_LINE
 10
507640.00
 20
1141003.00
  0
VERTEX
  8
RIVER_STREAM_SINGLE_LINE
 10
507640.00
 20
1140998.00
  0
VERTEX
  8
RIVER_STREAM_SINGLE_LINE
 10
507637.00
 20
1140994.00
  0
VERTEX
  8
RIVER_STREAM_SINGLE_LINE
 10
507633.00
 20
1140992.00
  0
VERTEX
  8
RIVER_STREAM_SINGLE_LINE
 10
507628.00
 20
1140988.00
  0
VERTEX
  8
RIVER_STREAM_SINGLE_LINE
 10
507622.00
 20
1140983.00
  0
VERTEX
  8
RIVER_STREAM_SINGLE_LINE
 10
507619.00
 20
1140977.00
  0
VERTEX
  8
RIVER_STREAM_SINGLE_LINE
 10
507613.00
 20
1140970.00
  0
VERTEX
  8
RIVER_STREAM_SINGLE_LINE
 10
507611.00
 20
1140967.00
  0
VERTEX
  8
RIVER_STREAM_SINGLE_LINE
 10
507605.00
 20
1140961.00
  0
VERTEX
  8
RIVER_STREAM_SINGLE_LINE
 10
507604.00
 20
1140957.00
  0
VERTEX
  8
RIVER_STREAM_SINGLE_LINE
 10
507603.00
 20
1140952.00
  0
VERTEX
  8
RIVER_STREAM_SINGLE_LINE
 10
507604.00
 20
1140943.00
  0
VERTEX
  8
RIVER_STREAM_SINGLE_LINE
 10
507605.00
 20
1140936.00
  0
VERTEX
  8
RIVER_STREAM_SINGLE_LINE
 10
507606.00
 20
1140928.00
  0
VERTEX
  8
RIVER_STREAM_SINGLE_LINE
 10
507603.00
 20
1140922.00
  0
VERTEX
  8
RIVER_STREAM_SINGLE_LINE
 10
507601.00
 20
1140918.00
  0
VERTEX
  8
RIVER_STREAM_SINGLE_LINE
 10
507597.00
 20
1140912.00
  0
VERTEX
  8
RIVER_STREAM_SINGLE_LINE
 10
507595.00
 20
1140907.00
  0
VERTEX
  8
RIVER_STREAM_SINGLE_LINE
 10
507593.00
 20
1140908.00
  0
SEQEND
  8
RIVER_STREAM_SINGLE_LINE
  0
POLYLINE
  8
BEAVER_DAM
 66
     1
 62
     2
  6
CONTINUOUS
  0
VERTEX
  8
BEAVER_DAM
 10
507593.00
 20
1140908.00
  0
VERTEX
  8
BEAVER_DAM
 10
507602.00
 20
1140902.00
  0
SEQEND
  8
BEAVER_DAM
  0
POLYLINE
  8
BEAVER_DAM
 66
     1
 62
     2
  6
CONTINUOUS
  0
VERTEX
  8
BEAVER_DAM
 10
507579.00
 20
1140873.00
  0
VERTEX
  8
BEAVER_DAM
 10
507590.00
 20
1140873.00
  0
VERTEX
  8
BEAVER_DAM
 10
507593.00
 20
1140870.00
  0
SEQEND
  8
BEAVER_DAM
  0
POLYLINE
  8
BEAVER_DAM
 66
     1
 62
     2
  6
CONTINUOUS
  0
VERTEX
  8
BEAVER_DAM
 10
507535.00
 20
1140858.00
  0
VERTEX
  8
BEAVER_DAM
 10
507546.00
 20
1140856.00
  0
VERTEX
  8
BEAVER_DAM
 10
507559.00
 20
1140862.00
  0
VERTEX
  8
BEAVER_DAM
 10
507570.00
 20
1140867.00
  0
VERTEX
  8
BEAVER_DAM
 10
507577.00
 20
1140870.00
  0
VERTEX
  8
BEAVER_DAM
 10
507579.00
 20
1140873.00
  0
SEQEND
  8
BEAVER_DAM
  0
POLYLINE
  8
BEAVER_DAM
 66
     1
 62
     2
  6
CONTINUOUS
  0
VERTEX
  8
BEAVER_DAM
 10
505871.00
 20
1140613.00
  0
VERTEX
  8
BEAVER_DAM
 10
505871.00
 20
1140579.00
  0
SEQEND
  8
BEAVER_DAM
  0
POLYLINE
  8
RIVER_STREAM_SINGLE_LINE
 66
     1
 62
     5
  6
CONTINUOUS
  0
VERTEX
  8
RIVER_STREAM_SINGLE_LINE
 10
505920.00
 20
1140524.00
  0
VERTEX
  8
RIVER_STREAM_SINGLE_LINE
 10
505925.00
 20
1140540.00
  0
VERTEX
  8
RIVER_STREAM_SINGLE_LINE
 10
505921.00
 20
1140557.00
  0
VERTEX
  8
RIVER_STREAM_SINGLE_LINE
 10
505920.00
 20
1140570.00
  0
VERTEX
  8
RIVER_STREAM_SINGLE_LINE
 10
505927.00
 20
1140586.00
  0
VERTEX
  8
RIVER_STREAM_SINGLE_LINE
 10
505943.00
 20
1140587.00
  0
VERTEX
  8
RIVER_STREAM_SINGLE_LINE
 10
505962.00
 20
1140593.00
  0
VERTEX
  8
RIVER_STREAM_SINGLE_LINE
 10
505986.00
 20
1140598.00
  0
VERTEX
  8
RIVER_STREAM_SINGLE_LINE
 10
506000.00
 20
1140600.00
  0
VERTEX
  8
RIVER_STREAM_SINGLE_LINE
 10
506010.00
 20
1140603.00
  0
VERTEX
  8
RIVER_STREAM_SINGLE_LINE
 10
506019.00
 20
1140614.00
  0
VERTEX
  8
RIVER_STREAM_SINGLE_LINE
 10
506032.00
 20
1140624.00
  0
VERTEX
  8
RIVER_STREAM_SINGLE_LINE
 10
506041.00
 20
1140631.00
  0
VERTEX
  8
RIVER_STREAM_SINGLE_LINE
 10
506049.00
 20
1140634.00
  0
VERTEX
  8
RIVER_STREAM_SINGLE_LINE
 10
506061.00
 20
1140625.00
  0
VERTEX
  8
RIVER_STREAM_SINGLE_LINE
 10
506067.00
 20
1140618.00
  0
VERTEX
  8
RIVER_STREAM_SINGLE_LINE
 10
506077.00
 20
1140611.00
  0
VERTEX
  8
RIVER_STREAM_SINGLE_LINE
 10
506094.00
 20
1140611.00
  0
VERTEX
  8
RIVER_STREAM_SINGLE_LINE
 10
506114.00
 20
1140618.00
  0
VERTEX
  8
RIVER_STREAM_SINGLE_LINE
 10
506141.00
 20
1140631.00
  0
VERTEX
  8
RIVER_STREAM_SINGLE_LINE
 10
506172.00
 20
1140642.00
  0
VERTEX
  8
RIVER_STREAM_SINGLE_LINE
 10
506205.00
 20
1140650.00
  0
VERTEX
  8
RIVER_STREAM_SINGLE_LINE
 10
506235.00
 20
1140664.00
  0
VERTEX
  8
RIVER_STREAM_SINGLE_LINE
 10
506261.00
 20
1140673.00
  0
VERTEX
  8
RIVER_STREAM_SINGLE_LINE
 10
506278.00
 20
1140681.00
  0
VERTEX
  8
RIVER_STREAM_SINGLE_LINE
 10
506295.00
 20
1140688.00
  0
VERTEX
  8
RIVER_STREAM_SINGLE_LINE
 10
506325.00
 20
1140693.00
  0
VERTEX
  8
RIVER_STREAM_SINGLE_LINE
 10
506370.00
 20
1140700.00
  0
VERTEX
  8
RIVER_STREAM_SINGLE_LINE
 10
506407.00
 20
1140705.00
  0
VERTEX
  8
RIVER_STREAM_SINGLE_LINE
 10
506446.00
 20
1140711.00
  0
VERTEX
  8
RIVER_STREAM_SINGLE_LINE
 10
506481.00
 20
1140715.00
  0
VERTEX
  8
RIVER_STREAM_SINGLE_LINE
 10
506510.00
 20
1140721.00
  0
VERTEX
  8
RIVER_STREAM_SINGLE_LINE
 10
506536.00
 20
1140728.00
  0
VERTEX
  8
RIVER_STREAM_SINGLE_LINE
 10
506560.00
 20
1140740.00
  0
VERTEX
  8
RIVER_STREAM_SINGLE_LINE
 10
506586.00
 20
1140758.00
  0
VERTEX
  8
RIVER_STREAM_SINGLE_LINE
 10
506611.00
 20
1140778.00
  0
VERTEX
  8
RIVER_STREAM_SINGLE_LINE
 10
506633.00
 20
1140801.00
  0
VERTEX
  8
RIVER_STREAM_SINGLE_LINE
 10
506655.00
 20
1140821.00
  0
VERTEX
  8
RIVER_STREAM_SINGLE_LINE
 10
506665.00
 20
1140828.00
  0
VERTEX
  8
RIVER_STREAM_SINGLE_LINE
 10
506675.00
 20
1140827.00
  0
VERTEX
  8
RIVER_STREAM_SINGLE_LINE
 10
506692.00
 20
1140815.00
  0
VERTEX
  8
RIVER_STREAM_SINGLE_LINE
 10
506713.00
 20
1140807.00
  0
VERTEX
  8
RIVER_STREAM_SINGLE_LINE
 10
506731.00
 20
1140808.00
  0
VERTEX
  8
RIVER_STREAM_SINGLE_LINE
 10
506743.00
 20
1140815.00
  0
VERTEX
  8
RIVER_STREAM_SINGLE_LINE
 10
506753.00
 20
1140820.00
  0
VERTEX
  8
RIVER_STREAM_SINGLE_LINE
 10
506771.00
 20
1140828.00
  0
SEQEND
  8
RIVER_STREAM_SINGLE_LINE
  0
POLYLINE
  8
BEAVER_DAM
 66
     1
 62
     2
  6
CONTINUOUS
  0
VERTEX
  8
BEAVER_DAM
 10
505871.00
 20
1140579.00
  0
VERTEX
  8
BEAVER_DAM
 10
505875.00
 20
1140560.00
  0
VERTEX
  8
BEAVER_DAM
 10
505882.00
 20
1140540.00
  0
VERTEX
  8
BEAVER_DAM
 10
505888.00
 20
1140523.00
  0
VERTEX
  8
BEAVER_DAM
 10
505895.00
 20
1140516.00
  0
VERTEX
  8
BEAVER_DAM
 10
505904.00
 20
1140514.00
  0
VERTEX
  8
BEAVER_DAM
 10
505912.00
 20
1140520.00
  0
VERTEX
  8
BEAVER_DAM
 10
505920.00
 20
1140524.00
  0
SEQEND
  8
BEAVER_DAM
  0
POLYLINE
  8
BEAVER_DAM
 66
     1
 62
     2
  6
CONTINUOUS
  0
VERTEX
  8
BEAVER_DAM
 10
505920.00
 20
1140524.00
  0
VERTEX
  8
BEAVER_DAM
 10
505933.00
 20
1140525.00
  0
VERTEX
  8
BEAVER_DAM
 10
505947.00
 20
1140517.00
  0
VERTEX
  8
BEAVER_DAM
 10
505960.00
 20
1140507.00
  0
VERTEX
  8
BEAVER_DAM
 10
505968.00
 20
1140496.00
  0
VERTEX
  8
BEAVER_DAM
 10
505969.00
 20
1140482.00
  0
SEQEND
  8
BEAVER_DAM
  0
POLYLINE
  8
BEAVER_DAM
 66
     1
 62
     2
  6
CONTINUOUS
  0
VERTEX
  8
BEAVER_DAM
 10
505969.00
 20
1140482.00
  0
VERTEX
  8
BEAVER_DAM
 10
505978.00
 20
1140480.00
  0
SEQEND
  8
BEAVER_DAM
  0
POLYLINE
  8
RIVER_STREAM_SINGLE_LINE
 66
     1
 62
     5
  6
CONTINUOUS
  0
VERTEX
  8
RIVER_STREAM_SINGLE_LINE
 10
501916.00
 20
1140220.00
  0
VERTEX
  8
RIVER_STREAM_SINGLE_LINE
 10
501924.00
 20
1140230.00
  0
VERTEX
  8
RIVER_STREAM_SINGLE_LINE
 10
501941.00
 20
1140248.00
  0
VERTEX
  8
RIVER_STREAM_SINGLE_LINE
 10
501948.00
 20
1140269.00
  0
VERTEX
  8
RIVER_STREAM_SINGLE_LINE
 10
501951.00
 20
1140285.00
  0
VERTEX
  8
RIVER_STREAM_SINGLE_LINE
 10
501963.00
 20
1140294.00
  0
VERTEX
  8
RIVER_STREAM_SINGLE_LINE
 10
501989.00
 20
1140304.00
  0
VERTEX
  8
RIVER_STREAM_SINGLE_LINE
 10
502012.00
 20
1140315.00
  0
VERTEX
  8
RIVER_STREAM_SINGLE_LINE
 10
502026.00
 20
1140325.00
  0
VERTEX
  8
RIVER_STREAM_SINGLE_LINE
 10
502036.00
 20
1140345.00
  0
VERTEX
  8
RIVER_STREAM_SINGLE_LINE
 10
502042.00
 20
1140357.00
  0
VERTEX
  8
RIVER_STREAM_SINGLE_LINE
 10
502081.00
 20
1140393.00
  0
VERTEX
  8
RIVER_STREAM_SINGLE_LINE
 10
502120.00
 20
1140424.00
  0
VERTEX
  8
RIVER_STREAM_SINGLE_LINE
 10
502154.00
 20
1140446.00
  0
VERTEX
  8
RIVER_STREAM_SINGLE_LINE
 10
502176.00
 20
1140460.00
  0
VERTEX
  8
RIVER_STREAM_SINGLE_LINE
 10
502204.00
 20
1140460.00
  0
VERTEX
  8
RIVER_STREAM_SINGLE_LINE
 10
502235.00
 20
1140461.00
  0
VERTEX
  8
RIVER_STREAM_SINGLE_LINE
 10
502252.00
 20
1140456.00
  0
VERTEX
  8
RIVER_STREAM_SINGLE_LINE
 10
502271.00
 20
1140452.00
  0
SEQEND
  8
RIVER_STREAM_SINGLE_LINE
  0
POLYLINE
  8
RIVER_STREAM_SINGLE_LINE
 66
     1
 62
     5
  6
CONTINUOUS
  0
VERTEX
  8
RIVER_STREAM_SINGLE_LINE
 10
508558.00
 20
1149993.00
  0
VERTEX
  8
RIVER_STREAM_SINGLE_LINE
 10
508574.00
 20
1150000.00
  0
SEQEND
  8
RIVER_STREAM_SINGLE_LINE
  0
POLYLINE
  8
RIVER_STREAM_INTERMITTENT
 66
     1
 62
     5
  6
DASHED
  0
VERTEX
  8
RIVER_STREAM_INTERMITTENT
 10
508171.00
 20
1150000.00
  0
VERTEX
  8
RIVER_STREAM_INTERMITTENT
 10
508184.00
 20
1149988.63
  0
VERTEX
  8
RIVER_STREAM_INTERMITTENT
 10
508222.72
 20
1149988.63
  0
VERTEX
  8
RIVER_STREAM_INTERMITTENT
 10
508241.34
 20
1149986.50
  0
VERTEX
  8
RIVER_STREAM_INTERMITTENT
 10
508258.56
 20
1149979.38
  0
VERTEX
  8
RIVER_STREAM_INTERMITTENT
 10
508278.63
 20
1149968.63
  0
VERTEX
  8
RIVER_STREAM_INTERMITTENT
 10
508297.28
 20
1149955.00
  0
VERTEX
  8
RIVER_STREAM_INTERMITTENT
 10
508315.91
 20
1149936.38
  0
VERTEX
  8
RIVER_STREAM_INTERMITTENT
 10
508331.69
 20
1149918.38
  0
VERTEX
  8
RIVER_STREAM_INTERMITTENT
 10
508356.06
 20
1149879.63
  0
VERTEX
  8
RIVER_STREAM_INTERMITTENT
 10
508358.94
 20
1149876.88
  0
SEQEND
  8
RIVER_STREAM_INTERMITTENT
  0
POLYLINE
  8
RIVER_STREAM_SINGLE_LINE
 66
     1
 62
     5
  6
CONTINUOUS
  0
VERTEX
  8
RIVER_STREAM_SINGLE_LINE
 10
501096.00
 20
1149870.00
  0
VERTEX
  8
RIVER_STREAM_SINGLE_LINE
 10
501098.00
 20
1149895.00
  0
VERTEX
  8
RIVER_STREAM_SINGLE_LINE
 10
501099.00
 20
1149919.00
  0
VERTEX
  8
RIVER_STREAM_SINGLE_LINE
 10
501103.00
 20
1149941.00
  0
VERTEX
  8
RIVER_STREAM_SINGLE_LINE
 10
501107.00
 20
1149966.00
  0
VERTEX
  8
RIVER_STREAM_SINGLE_LINE
 10
501105.00
 20
1150000.00
  0
SEQEND
  8
RIVER_STREAM_SINGLE_LINE
  0
POLYLINE
  8
VIRTUAL_SEGMENT_STREAM
 66
     1
 62
     2
  6
CONTINUOUS
  0
VERTEX
  8
VIRTUAL_SEGMENT_STREAM
 10
501096.00
 20
1149870.00
  0
VERTEX
  8
VIRTUAL_SEGMENT_STREAM
 10
501097.00
 20
1149846.00
  0
SEQEND
  8
VIRTUAL_SEGMENT_STREAM
  0
POLYLINE
  8
RIVER_STREAM_SINGLE_LINE
 66
     1
 62
     5
  6
CONTINUOUS
  0
VERTEX
  8
RIVER_STREAM_SINGLE_LINE
 10
508375.00
 20
1149826.00
  0
VERTEX
  8
RIVER_STREAM_SINGLE_LINE
 10
508372.00
 20
1149840.00
  0
VERTEX
  8
RIVER_STREAM_SINGLE_LINE
 10
508374.00
 20
1149858.00
  0
VERTEX
  8
RIVER_STREAM_SINGLE_LINE
 10
508378.00
 20
1149874.00
  0
VERTEX
  8
RIVER_STREAM_SINGLE_LINE
 10
508376.00
 20
1149887.00
  0
VERTEX
  8
RIVER_STREAM_SINGLE_LINE
 10
508379.00
 20
1149900.00
  0
VERTEX
  8
RIVER_STREAM_SINGLE_LINE
 10
508392.00
 20
1149920.00
  0
VERTEX
  8
RIVER_STREAM_SINGLE_LINE
 10
508411.00
 20
1149941.00
  0
VERTEX
  8
RIVER_STREAM_SINGLE_LINE
 10
508429.00
 20
1149956.00
  0
VERTEX
  8
RIVER_STREAM_SINGLE_LINE
 10
508456.00
 20
1149970.00
  0
VERTEX
  8
RIVER_STREAM_SINGLE_LINE
 10
508484.00
 20
1149980.00
  0
VERTEX
  8
RIVER_STREAM_SINGLE_LINE
 10
508500.00
 20
1149982.00
  0
VERTEX
  8
RIVER_STREAM_SINGLE_LINE
 10
508524.00
 20
1149980.00
  0
VERTEX
  8
RIVER_STREAM_SINGLE_LINE
 10
508543.00
 20
1149987.00
  0
VERTEX
  8
RIVER_STREAM_SINGLE_LINE
 10
508558.00
 20
1149993.00
  0
SEQEND
  8
RIVER_STREAM_SINGLE_LINE
  0
POLYLINE
  8
RIVER_STREAM_SINGLE_LINE
 66
     1
 62
     5
  6
CONTINUOUS
  0
VERTEX
  8
RIVER_STREAM_SINGLE_LINE
 10
508378.00
 20
1149817.00
  0
VERTEX
  8
RIVER_STREAM_SINGLE_LINE
 10
508375.00
 20
1149826.00
  0
SEQEND
  8
RIVER_STREAM_SINGLE_LINE
  0
POLYLINE
  8
RIVER_STREAM_SINGLE_LINE
 66
     1
 62
     5
  6
CONTINUOUS
  0
VERTEX
  8
RIVER_STREAM_SINGLE_LINE
 10
501096.00
 20
1149687.00
  0
VERTEX
  8
RIVER_STREAM_SINGLE_LINE
 10
501094.00
 20
1149711.00
  0
VERTEX
  8
RIVER_STREAM_SINGLE_LINE
 10
501097.00
 20
1149746.00
  0
VERTEX
  8
RIVER_STREAM_SINGLE_LINE
 10
501099.00
 20
1149780.00
  0
VERTEX
  8
RIVER_STREAM_SINGLE_LINE
 10
501098.00
 20
1149806.00
  0
VERTEX
  8
RIVER_STREAM_SINGLE_LINE
 10
501095.00
 20
1149825.00
  0
VERTEX
  8
RIVER_STREAM_SINGLE_LINE
 10
501097.00
 20
1149846.00
  0
SEQEND
  8
RIVER_STREAM_SINGLE_LINE
  0
POLYLINE
  8
VIRTUAL_SEGMENT_STREAM
 66
     1
 62
     2
  6
CONTINUOUS
  0
VERTEX
  8
VIRTUAL_SEGMENT_STREAM
 10
501099.00
 20
1149660.00
  0
VERTEX
  8
VIRTUAL_SEGMENT_STREAM
 10
501096.00
 20
1149687.00
  0
SEQEND
  8
VIRTUAL_SEGMENT_STREAM
  0
POLYLINE
  8
RIVER_STREAM_SINGLE_LINE
 66
     1
 62
     5
  6
CONTINUOUS
  0
VERTEX
  8
RIVER_STREAM_SINGLE_LINE
 10
505382.03
 20
1149575.38
  0
VERTEX
  8
RIVER_STREAM_SINGLE_LINE
 10
505383.00
 20
1149571.00
  0
VERTEX
  8
RIVER_STREAM_SINGLE_LINE
 10
505380.00
 20
1149559.00
  0
SEQEND
  8
RIVER_STREAM_SINGLE_LINE
  0
POLYLINE
  8
VIRTUAL_SEGMENT_STREAM
 66
     1
 62
     2
  6
CONTINUOUS
  0
VERTEX
  8
VIRTUAL_SEGMENT_STREAM
 10
505380.00
 20
1149559.00
  0
VERTEX
  8
VIRTUAL_SEGMENT_STREAM
 10
505381.00
 20
1149540.00
  0
SEQEND
  8
VIRTUAL_SEGMENT_STREAM
  0
POLYLINE
  8
RIVER_STREAM_SINGLE_LINE
 66
     1
 62
     5
  6
CONTINUOUS
  0
VERTEX
  8
RIVER_STREAM_SINGLE_LINE
 10
508312.00
 20
1149412.00
  0
VERTEX
  8
RIVER_STREAM_SINGLE_LINE
 10
508317.00
 20
1149428.00
  0
VERTEX
  8
RIVER_STREAM_SINGLE_LINE
 10
508326.00
 20
1149448.00
  0
VERTEX
  8
RIVER_STREAM_SINGLE_LINE
 10
508334.00
 20
1149469.00
  0
VERTEX
  8
RIVER_STREAM_SINGLE_LINE
 10
508343.00
 20
1149486.00
  0
VERTEX
  8
RIVER_STREAM_SINGLE_LINE
 10
508358.00
 20
1149504.00
  0
VERTEX
  8
RIVER_STREAM_SINGLE_LINE
 10
508370.00
 20
1149520.00
  0
VERTEX
  8
RIVER_STREAM_SINGLE_LINE
 10
508380.00
 20
1149536.00
  0
VERTEX
  8
RIVER_STREAM_SINGLE_LINE
 10
508391.00
 20
1149543.00
  0
VERTEX
  8
RIVER_STREAM_SINGLE_LINE
 10
508400.00
 20
1149545.00
  0
VERTEX
  8
RIVER_STREAM_SINGLE_LINE
 10
508403.00
 20
1149562.00
  0
VERTEX
  8
RIVER_STREAM_SINGLE_LINE
 10
508399.00
 20
1149580.00
  0
VERTEX
  8
RIVER_STREAM_SINGLE_LINE
 10
508399.00
 20
1149599.00
  0
VERTEX
  8
RIVER_STREAM_SINGLE_LINE
 10
508401.00
 20
1149630.00
  0
VERTEX
  8
RIVER_STREAM_SINGLE_LINE
 10
508405.00
 20
1149653.00
  0
VERTEX
  8
RIVER_STREAM_SINGLE_LINE
 10
508409.00
 20
1149676.00
  0
VERTEX
  8
RIVER_STREAM_SINGLE_LINE
 10
508407.00
 20
1149686.00
  0
VERTEX
  8
RIVER_STREAM_SINGLE_LINE
 10
508400.00
 20
1149696.00
  0
VERTEX
  8
RIVER_STREAM_SINGLE_LINE
 10
508398.00
 20
1149705.00
  0
VERTEX
  8
RIVER_STREAM_SINGLE_LINE
 10
508400.00
 20
1149711.00
  0
VERTEX
  8
RIVER_STREAM_SINGLE_LINE
 10
508404.00
 20
1149720.00
  0
VERTEX
  8
RIVER_STREAM_SINGLE_LINE
 10
508405.00
 20
1149736.00
  0
VERTEX
  8
RIVER_STREAM_SINGLE_LINE
 10
508400.00
 20
1149741.00
  0
VERTEX
  8
RIVER_STREAM_SINGLE_LINE
 10
508395.00
 20
1149750.00
  0
VERTEX
  8
RIVER_STREAM_SINGLE_LINE
 10
508395.00
 20
1149759.00
  0
VERTEX
  8
RIVER_STREAM_SINGLE_LINE
 10
508397.00
 20
1149771.00
  0
VERTEX
  8
RIVER_STREAM_SINGLE_LINE
 10
508397.00
 20
1149777.00
  0
VERTEX
  8
RIVER_STREAM_SINGLE_LINE
 10
508385.00
 20
1149801.00
  0
VERTEX
  8
RIVER_STREAM_SINGLE_LINE
 10
508378.00
 20
1149817.00
  0
SEQEND
  8
RIVER_STREAM_SINGLE_LINE
  0
POLYLINE
  8
RIVER_STREAM_SINGLE_LINE
 66
     1
 62
     5
  6
CONTINUOUS
  0
VERTEX
  8
RIVER_STREAM_SINGLE_LINE
 10
508317.00
 20
1149392.00
  0
VERTEX
  8
RIVER_STREAM_SINGLE_LINE
 10
508318.00
 20
1149399.00
  0
VERTEX
  8
RIVER_STREAM_SINGLE_LINE
 10
508312.00
 20
1149412.00
  0
SEQEND
  8
RIVER_STREAM_SINGLE_LINE
  0
POLYLINE
  8
RIVER_STREAM_SINGLE_LINE
 66
     1
 62
     5
  6
CONTINUOUS
  0
VERTEX
  8
RIVER_STREAM_SINGLE_LINE
 10
509194.00
 20
1150000.00
  0
VERTEX
  8
RIVER_STREAM_SINGLE_LINE
 10
509199.00
 20
1149987.00
  0
VERTEX
  8
RIVER_STREAM_SINGLE_LINE
 10
509211.00
 20
1149981.00
  0
VERTEX
  8
RIVER_STREAM_SINGLE_LINE
 10
509221.00
 20
1149947.00
  0
VERTEX
  8
RIVER_STREAM_SINGLE_LINE
 10
509235.00
 20
1149916.00
  0
VERTEX
  8
RIVER_STREAM_SINGLE_LINE
 10
509256.00
 20
1149895.00
  0
VERTEX
  8
RIVER_STREAM_SINGLE_LINE
 10
509289.00
 20
1149874.00
  0
VERTEX
  8
RIVER_STREAM_SINGLE_LINE
 10
509323.00
 20
1149850.00
  0
VERTEX
  8
RIVER_STREAM_SINGLE_LINE
 10
509355.00
 20
1149827.00
  0
VERTEX
  8
RIVER_STREAM_SINGLE_LINE
 10
509376.00
 20
1149780.00
  0
VERTEX
  8
RIVER_STREAM_SINGLE_LINE
 10
509408.00
 20
1149755.00
  0
VERTEX
  8
RIVER_STREAM_SINGLE_LINE
 10
509436.00
 20
1149730.00
  0
VERTEX
  8
RIVER_STREAM_SINGLE_LINE
 10
509463.00
 20
1149709.00
  0
VERTEX
  8
RIVER_STREAM_SINGLE_LINE
 10
509483.00
 20
1149689.00
  0
VERTEX
  8
RIVER_STREAM_SINGLE_LINE
 10
509489.00
 20
1149673.00
  0
VERTEX
  8
RIVER_STREAM_SINGLE_LINE
 10
509492.00
 20
1149658.00
  0
VERTEX
  8
RIVER_STREAM_SINGLE_LINE
 10
509486.00
 20
1149633.00
  0
VERTEX
  8
RIVER_STREAM_SINGLE_LINE
 10
509481.00
 20
1149601.00
  0
VERTEX
  8
RIVER_STREAM_SINGLE_LINE
 10
509472.00
 20
1149592.00
  0
VERTEX
  8
RIVER_STREAM_SINGLE_LINE
 10
509473.00
 20
1149586.00
  0
VERTEX
  8
RIVER_STREAM_SINGLE_LINE
 10
509473.00
 20
1149581.00
  0
VERTEX
  8
RIVER_STREAM_SINGLE_LINE
 10
509472.00
 20
1149576.00
  0
VERTEX
  8
RIVER_STREAM_SINGLE_LINE
 10
509470.00
 20
1149570.00
  0
VERTEX
  8
RIVER_STREAM_SINGLE_LINE
 10
509468.00
 20
1149565.00
  0
VERTEX
  8
RIVER_STREAM_SINGLE_LINE
 10
509467.00
 20
1149562.00
  0
VERTEX
  8
RIVER_STREAM_SINGLE_LINE
 10
509465.00
 20
1149558.00
  0
VERTEX
  8
RIVER_STREAM_SINGLE_LINE
 10
509463.00
 20
1149551.00
  0
VERTEX
  8
RIVER_STREAM_SINGLE_LINE
 10
509461.00
 20
1149547.00
  0
VERTEX
  8
RIVER_STREAM_SINGLE_LINE
 10
509458.00
 20
1149543.00
  0
VERTEX
  8
RIVER_STREAM_SINGLE_LINE
 10
509455.00
 20
1149540.00
  0
VERTEX
  8
RIVER_STREAM_SINGLE_LINE
 10
509451.00
 20
1149537.00
  0
VERTEX
  8
RIVER_STREAM_SINGLE_LINE
 10
509449.00
 20
1149535.00
  0
VERTEX
  8
RIVER_STREAM_SINGLE_LINE
 10
509447.00
 20
1149530.00
  0
VERTEX
  8
RIVER_STREAM_SINGLE_LINE
 10
509447.00
 20
1149524.00
  0
VERTEX
  8
RIVER_STREAM_SINGLE_LINE
 10
509447.00
 20
1149523.00
  0
VERTEX
  8
RIVER_STREAM_SINGLE_LINE
 10
509446.00
 20
1149518.00
  0
VERTEX
  8
RIVER_STREAM_SINGLE_LINE
 10
509446.00
 20
1149512.00
  0
VERTEX
  8
RIVER_STREAM_SINGLE_LINE
 10
509446.00
 20
1149508.00
  0
VERTEX
  8
RIVER_STREAM_SINGLE_LINE
 10
509448.00
 20
1149503.00
  0
VERTEX
  8
RIVER_STREAM_SINGLE_LINE
 10
509446.00
 20
1149494.00
  0
VERTEX
  8
RIVER_STREAM_SINGLE_LINE
 10
509441.00
 20
1149488.00
  0
VERTEX
  8
RIVER_STREAM_SINGLE_LINE
 10
509436.00
 20
1149483.00
  0
VERTEX
  8
RIVER_STREAM_SINGLE_LINE
 10
509434.00
 20
1149478.00
  0
VERTEX
  8
RIVER_STREAM_SINGLE_LINE
 10
509429.00
 20
1149472.00
  0
VERTEX
  8
RIVER_STREAM_SINGLE_LINE
 10
509425.00
 20
1149469.00
  0
VERTEX
  8
RIVER_STREAM_SINGLE_LINE
 10
509419.00
 20
1149463.00
  0
VERTEX
  8
RIVER_STREAM_SINGLE_LINE
 10
509414.00
 20
1149458.00
  0
VERTEX
  8
RIVER_STREAM_SINGLE_LINE
 10
509406.00
 20
1149452.00
  0
VERTEX
  8
RIVER_STREAM_SINGLE_LINE
 10
509399.00
 20
1149450.00
  0
VERTEX
  8
RIVER_STREAM_SINGLE_LINE
 10
509393.00
 20
1149449.00
  0
VERTEX
  8
RIVER_STREAM_SINGLE_LINE
 10
509384.00
 20
1149449.00
  0
VERTEX
  8
RIVER_STREAM_SINGLE_LINE
 10
509379.00
 20
1149448.00
  0
VERTEX
  8
RIVER_STREAM_SINGLE_LINE
 10
509374.00
 20
1149445.00
  0
VERTEX
  8
RIVER_STREAM_SINGLE_LINE
 10
509367.00
 20
1149442.00
  0
VERTEX
  8
RIVER_STREAM_SINGLE_LINE
 10
509358.00
 20
1149436.00
  0
VERTEX
  8
RIVER_STREAM_SINGLE_LINE
 10
509351.00
 20
1149430.00
  0
VERTEX
  8
RIVER_STREAM_SINGLE_LINE
 10
509344.00
 20
1149420.00
  0
VERTEX
  8
RIVER_STREAM_SINGLE_LINE
 10
509337.00
 20
1149412.00
  0
VERTEX
  8
RIVER_STREAM_SINGLE_LINE
 10
509333.00
 20
1149405.00
  0
VERTEX
  8
RIVER_STREAM_SINGLE_LINE
 10
509330.00
 20
1149396.00
  0
VERTEX
  8
RIVER_STREAM_SINGLE_LINE
 10
509326.00
 20
1149389.00
  0
VERTEX
  8
RIVER_STREAM_SINGLE_LINE
 10
509319.00
 20
1149380.00
  0
VERTEX
  8
RIVER_STREAM_SINGLE_LINE
 10
509316.00
 20
1149376.00
  0
VERTEX
  8
RIVER_STREAM_SINGLE_LINE
 10
509311.00
 20
1149371.00
  0
VERTEX
  8
RIVER_STREAM_SINGLE_LINE
 10
509305.00
 20
1149365.00
  0
VERTEX
  8
RIVER_STREAM_SINGLE_LINE
 10
509298.00
 20
1149358.00
  0
VERTEX
  8
RIVER_STREAM_SINGLE_LINE
 10
509294.00
 20
1149355.00
  0
VERTEX
  8
RIVER_STREAM_SINGLE_LINE
 10
509290.00
 20
1149351.00
  0
SEQEND
  8
RIVER_STREAM_SINGLE_LINE
  0
POLYLINE
  8
RIVER_STREAM_SINGLE_LINE
 66
     1
 62
     5
  6
CONTINUOUS
  0
VERTEX
  8
RIVER_STREAM_SINGLE_LINE
 10
505381.00
 20
1149540.00
  0
VERTEX
  8
RIVER_STREAM_SINGLE_LINE
 10
505381.00
 20
1149521.00
  0
VERTEX
  8
RIVER_STREAM_SINGLE_LINE
 10
505382.00
 20
1149512.00
  0
VERTEX
  8
RIVER_STREAM_SINGLE_LINE
 10
505382.00
 20
1149508.00
  0
VERTEX
  8
RIVER_STREAM_SINGLE_LINE
 10
505382.00
 20
1149501.00
  0
VERTEX
  8
RIVER_STREAM_SINGLE_LINE
 10
505382.00
 20
1149493.00
  0
VERTEX
  8
RIVER_STREAM_SINGLE_LINE
 10
505383.00
 20
1149486.00
  0
VERTEX
  8
RIVER_STREAM_SINGLE_LINE
 10
505382.00
 20
1149476.00
  0
VERTEX
  8
RIVER_STREAM_SINGLE_LINE
 10
505383.00
 20
1149472.00
  0
VERTEX
  8
RIVER_STREAM_SINGLE_LINE
 10
505383.00
 20
1149464.00
  0
VERTEX
  8
RIVER_STREAM_SINGLE_LINE
 10
505382.00
 20
1149460.00
  0
VERTEX
  8
RIVER_STREAM_SINGLE_LINE
 10
505381.00
 20
1149455.00
  0
VERTEX
  8
RIVER_STREAM_SINGLE_LINE
 10
505379.00
 20
1149444.00
  0
VERTEX
  8
RIVER_STREAM_SINGLE_LINE
 10
505379.00
 20
1149442.00
  0
VERTEX
  8
RIVER_STREAM_SINGLE_LINE
 10
505379.00
 20
1149434.00
  0
VERTEX
  8
RIVER_STREAM_SINGLE_LINE
 10
505378.00
 20
1149426.00
  0
VERTEX
  8
RIVER_STREAM_SINGLE_LINE
 10
505376.00
 20
1149419.00
  0
VERTEX
  8
RIVER_STREAM_SINGLE_LINE
 10
505375.00
 20
1149410.00
  0
VERTEX
  8
RIVER_STREAM_SINGLE_LINE
 10
505375.00
 20
1149403.00
  0
VERTEX
  8
RIVER_STREAM_SINGLE_LINE
 10
505375.00
 20
1149396.00
  0
VERTEX
  8
RIVER_STREAM_SINGLE_LINE
 10
505374.00
 20
1149391.00
  0
VERTEX
  8
RIVER_STREAM_SINGLE_LINE
 10
505373.00
 20
1149386.00
  0
VERTEX
  8
RIVER_STREAM_SINGLE_LINE
 10
505374.00
 20
1149382.00
  0
VERTEX
  8
RIVER_STREAM_SINGLE_LINE
 10
505374.00
 20
1149370.00
  0
VERTEX
  8
RIVER_STREAM_SINGLE_LINE
 10
505374.00
 20
1149362.00
  0
VERTEX
  8
RIVER_STREAM_SINGLE_LINE
 10
505373.00
 20
1149352.00
  0
VERTEX
  8
RIVER_STREAM_SINGLE_LINE
 10
505372.00
 20
1149341.00
  0
VERTEX
  8
RIVER_STREAM_SINGLE_LINE
 10
505371.00
 20
1149336.00
  0
VERTEX
  8
RIVER_STREAM_SINGLE_LINE
 10
505371.00
 20
1149331.00
  0
VERTEX
  8
RIVER_STREAM_SINGLE_LINE
 10
505371.00
 20
1149326.00
  0
VERTEX
  8
RIVER_STREAM_SINGLE_LINE
 10
505369.00
 20
1149317.00
  0
VERTEX
  8
RIVER_STREAM_SINGLE_LINE
 10
505368.00
 20
1149311.00
  0
VERTEX
  8
RIVER_STREAM_SINGLE_LINE
 10
505367.00
 20
1149306.00
  0
VERTEX
  8
RIVER_STREAM_SINGLE_LINE
 10
505365.00
 20
1149301.00
  0
VERTEX
  8
RIVER_STREAM_SINGLE_LINE
 10
505360.00
 20
1149290.00
  0
VERTEX
  8
RIVER_STREAM_SINGLE_LINE
 10
505356.00
 20
1149284.00
  0
VERTEX
  8
RIVER_STREAM_SINGLE_LINE
 10
505351.00
 20
1149276.00
  0
VERTEX
  8
RIVER_STREAM_SINGLE_LINE
 10
505347.00
 20
1149272.00
  0
VERTEX
  8
RIVER_STREAM_SINGLE_LINE
 10
505343.00
 20
1149267.00
  0
VERTEX
  8
RIVER_STREAM_SINGLE_LINE
 10
505340.00
 20
1149264.00
  0
VERTEX
  8
RIVER_STREAM_SINGLE_LINE
 10
505338.00
 20
1149260.00
  0
VERTEX
  8
RIVER_STREAM_SINGLE_LINE
 10
505334.00
 20
1149246.00
  0
SEQEND
  8
RIVER_STREAM_SINGLE_LINE
  0
POLYLINE
  8
RIVER_STREAM_SINGLE_LINE
 66
     1
 62
     5
  6
CONTINUOUS
  0
VERTEX
  8
RIVER_STREAM_SINGLE_LINE
 10
501163.00
 20
1149243.00
  0
VERTEX
  8
RIVER_STREAM_SINGLE_LINE
 10
501156.00
 20
1149259.00
  0
VERTEX
  8
RIVER_STREAM_SINGLE_LINE
 10
501151.00
 20
1149273.00
  0
VERTEX
  8
RIVER_STREAM_SINGLE_LINE
 10
501145.00
 20
1149289.00
  0
VERTEX
  8
RIVER_STREAM_SINGLE_LINE
 10
501151.00
 20
1149307.00
  0
VERTEX
  8
RIVER_STREAM_SINGLE_LINE
 10
501167.00
 20
1149333.00
  0
VERTEX
  8
RIVER_STREAM_SINGLE_LINE
 10
501177.00
 20
1149360.00
  0
VERTEX
  8
RIVER_STREAM_SINGLE_LINE
 10
501188.00
 20
1149383.00
  0
VERTEX
  8
RIVER_STREAM_SINGLE_LINE
 10
501197.00
 20
1149407.00
  0
VERTEX
  8
RIVER_STREAM_SINGLE_LINE
 10
501194.00
 20
1149427.00
  0
VERTEX
  8
RIVER_STREAM_SINGLE_LINE
 10
501186.00
 20
1149449.00
  0
VERTEX
  8
RIVER_STREAM_SINGLE_LINE
 10
501182.00
 20
1149465.00
  0
VERTEX
  8
RIVER_STREAM_SINGLE_LINE
 10
501184.00
 20
1149486.00
  0
VERTEX
  8
RIVER_STREAM_SINGLE_LINE
 10
501182.00
 20
1149500.00
  0
VERTEX
  8
RIVER_STREAM_SINGLE_LINE
 10
501177.00
 20
1149512.00
  0
VERTEX
  8
RIVER_STREAM_SINGLE_LINE
 10
501165.00
 20
1149529.00
  0
VERTEX
  8
RIVER_STREAM_SINGLE_LINE
 10
501145.00
 20
1149535.00
  0
VERTEX
  8
RIVER_STREAM_SINGLE_LINE
 10
501130.00
 20
1149535.00
  0
VERTEX
  8
RIVER_STREAM_SINGLE_LINE
 10
501115.00
 20
1149540.00
  0
VERTEX
  8
RIVER_STREAM_SINGLE_LINE
 10
501106.00
 20
1149552.00
  0
VERTEX
  8
RIVER_STREAM_SINGLE_LINE
 10
501101.00
 20
1149564.00
  0
VERTEX
  8
RIVER_STREAM_SINGLE_LINE
 10
501098.00
 20
1149575.00
  0
VERTEX
  8
RIVER_STREAM_SINGLE_LINE
 10
501097.00
 20
1149592.00
  0
VERTEX
  8
RIVER_STREAM_SINGLE_LINE
 10
501100.00
 20
1149613.00
  0
VERTEX
  8
RIVER_STREAM_SINGLE_LINE
 10
501100.00
 20
1149627.00
  0
VERTEX
  8
RIVER_STREAM_SINGLE_LINE
 10
501099.00
 20
1149660.00
  0
SEQEND
  8
RIVER_STREAM_SINGLE_LINE
  0
POLYLINE
  8
VIRTUAL_SEGMENT_STREAM
 66
     1
 62
     2
  6
CONTINUOUS
  0
VERTEX
  8
VIRTUAL_SEGMENT_STREAM
 10
505334.00
 20
1149246.00
  0
VERTEX
  8
VIRTUAL_SEGMENT_STREAM
 10
505330.00
 20
1149230.00
  0
SEQEND
  8
VIRTUAL_SEGMENT_STREAM
  0
POLYLINE
  8
VIRTUAL_SEGMENT_STREAM
 66
     1
 62
     2
  6
CONTINUOUS
  0
VERTEX
  8
VIRTUAL_SEGMENT_STREAM
 10
501163.00
 20
1149243.00
  0
VERTEX
  8
VIRTUAL_SEGMENT_STREAM
 10
501171.00
 20
1149214.00
  0
SEQEND
  8
VIRTUAL_SEGMENT_STREAM
  0
POLYLINE
  8
RIVER_STREAM_SINGLE_LINE
 66
     1
 62
     5
  6
CONTINUOUS
  0
VERTEX
  8
RIVER_STREAM_SINGLE_LINE
 10
505330.00
 20
1149230.00
  0
VERTEX
  8
RIVER_STREAM_SINGLE_LINE
 10
505326.00
 20
1149223.00
  0
VERTEX
  8
RIVER_STREAM_SINGLE_LINE
 10
505325.00
 20
1149217.00
  0
VERTEX
  8
RIVER_STREAM_SINGLE_LINE
 10
505324.00
 20
1149214.00
  0
VERTEX
  8
RIVER_STREAM_SINGLE_LINE
 10
505324.00
 20
1149208.00
  0
VERTEX
  8
RIVER_STREAM_SINGLE_LINE
 10
505323.00
 20
1149200.00
  0
VERTEX
  8
RIVER_STREAM_SINGLE_LINE
 10
505324.00
 20
1149193.00
  0
VERTEX
  8
RIVER_STREAM_SINGLE_LINE
 10
505324.00
 20
1149185.00
  0
VERTEX
  8
RIVER_STREAM_SINGLE_LINE
 10
505326.00
 20
1149178.00
  0
VERTEX
  8
RIVER_STREAM_SINGLE_LINE
 10
505327.00
 20
1149170.00
  0
VERTEX
  8
RIVER_STREAM_SINGLE_LINE
 10
505327.00
 20
1149162.00
  0
VERTEX
  8
RIVER_STREAM_SINGLE_LINE
 10
505326.00
 20
1149150.00
  0
VERTEX
  8
RIVER_STREAM_SINGLE_LINE
 10
505326.00
 20
1149141.00
  0
VERTEX
  8
RIVER_STREAM_SINGLE_LINE
 10
505326.00
 20
1149134.00
  0
VERTEX
  8
RIVER_STREAM_SINGLE_LINE
 10
505326.00
 20
1149126.00
  0
VERTEX
  8
RIVER_STREAM_SINGLE_LINE
 10
505326.00
 20
1149116.00
  0
VERTEX
  8
RIVER_STREAM_SINGLE_LINE
 10
505325.00
 20
1149107.00
  0
VERTEX
  8
RIVER_STREAM_SINGLE_LINE
 10
505324.00
 20
1149102.00
  0
VERTEX
  8
RIVER_STREAM_SINGLE_LINE
 10
505323.00
 20
1149091.00
  0
VERTEX
  8
RIVER_STREAM_SINGLE_LINE
 10
505321.00
 20
1149082.00
  0
VERTEX
  8
RIVER_STREAM_SINGLE_LINE
 10
505318.00
 20
1149074.00
  0
VERTEX
  8
RIVER_STREAM_SINGLE_LINE
 10
505315.00
 20
1149064.00
  0
VERTEX
  8
RIVER_STREAM_SINGLE_LINE
 10
505311.00
 20
1149054.00
  0
VERTEX
  8
RIVER_STREAM_SINGLE_LINE
 10
505309.00
 20
1149049.00
  0
VERTEX
  8
RIVER_STREAM_SINGLE_LINE
 10
505305.00
 20
1149040.00
  0
VERTEX
  8
RIVER_STREAM_SINGLE_LINE
 10
505302.00
 20
1149033.00
  0
VERTEX
  8
RIVER_STREAM_SINGLE_LINE
 10
505298.00
 20
1149026.00
  0
VERTEX
  8
RIVER_STREAM_SINGLE_LINE
 10
505294.00
 20
1149019.00
  0
VERTEX
  8
RIVER_STREAM_SINGLE_LINE
 10
505291.00
 20
1149012.00
  0
VERTEX
  8
RIVER_STREAM_SINGLE_LINE
 10
505288.00
 20
1149004.00
  0
VERTEX
  8
RIVER_STREAM_SINGLE_LINE
 10
505286.00
 20
1148998.00
  0
VERTEX
  8
RIVER_STREAM_SINGLE_LINE
 10
505285.00
 20
1148994.00
  0
VERTEX
  8
RIVER_STREAM_SINGLE_LINE
 10
505282.00
 20
1148985.00
  0
SEQEND
  8
RIVER_STREAM_SINGLE_LINE
  0
POLYLINE
  8
VIRTUAL_SEGMENT_STREAM
 66
     1
 62
     2
  6
CONTINUOUS
  0
VERTEX
  8
VIRTUAL_SEGMENT_STREAM
 10
505282.00
 20
1148985.00
  0
VERTEX
  8
VIRTUAL_SEGMENT_STREAM
 10
505278.00
 20
1148973.00
  0
SEQEND
  8
VIRTUAL_SEGMENT_STREAM
  0
POLYLINE
  8
RIVER_STREAM_SINGLE_LINE
 66
     1
 62
     5
  6
CONTINUOUS
  0
VERTEX
  8
RIVER_STREAM_SINGLE_LINE
 10
500932.00
 20
1148946.00
  0
VERTEX
  8
RIVER_STREAM_SINGLE_LINE
 10
500939.00
 20
1148959.00
  0
VERTEX
  8
RIVER_STREAM_SINGLE_LINE
 10
500952.00
 20
1148968.00
  0
VERTEX
  8
RIVER_STREAM_SINGLE_LINE
 10
500961.00
 20
1148990.00
  0
VERTEX
  8
RIVER_STREAM_SINGLE_LINE
 10
500961.00
 20
1149012.00
  0
VERTEX
  8
RIVER_STREAM_SINGLE_LINE
 10
500958.00
 20
1149032.00
  0
VERTEX
  8
RIVER_STREAM_SINGLE_LINE
 10
500960.00
 20
1149058.00
  0
VERTEX
  8
RIVER_STREAM_SINGLE_LINE
 10
500981.00
 20
1149068.00
  0
VERTEX
  8
RIVER_STREAM_SINGLE_LINE
 10
501010.00
 20
1149089.00
  0
VERTEX
  8
RIVER_STREAM_SINGLE_LINE
 10
501049.00
 20
1149104.00
  0
VERTEX
  8
RIVER_STREAM_SINGLE_LINE
 10
501082.00
 20
1149123.00
  0
VERTEX
  8
RIVER_STREAM_SINGLE_LINE
 10
501109.00
 20
1149138.00
  0
VERTEX
  8
RIVER_STREAM_SINGLE_LINE
 10
501135.00
 20
1149156.00
  0
VERTEX
  8
RIVER_STREAM_SINGLE_LINE
 10
501156.00
 20
1149170.00
  0
VERTEX
  8
RIVER_STREAM_SINGLE_LINE
 10
501168.00
 20
1149186.00
  0
VERTEX
  8
RIVER_STREAM_SINGLE_LINE
 10
501173.00
 20
1149200.00
  0
VERTEX
  8
RIVER_STREAM_SINGLE_LINE
 10
501171.00
 20
1149214.00
  0
SEQEND
  8
RIVER_STREAM_SINGLE_LINE
  0
POLYLINE
  8
VIRTUAL_SEGMENT_STREAM
 66
     1
 62
     2
  6
CONTINUOUS
  0
VERTEX
  8
VIRTUAL_SEGMENT_STREAM
 10
500932.00
 20
1148946.00
  0
VERTEX
  8
VIRTUAL_SEGMENT_STREAM
 10
500923.00
 20
1148919.00
  0
SEQEND
  8
VIRTUAL_SEGMENT_STREAM
  0
POLYLINE
  8
RIVER_STREAM_SINGLE_LINE
 66
     1
 62
     5
  6
CONTINUOUS
  0
VERTEX
  8
RIVER_STREAM_SINGLE_LINE
 10
509546.00
 20
1148893.00
  0
VERTEX
  8
RIVER_STREAM_SINGLE_LINE
 10
509545.00
 20
1148905.00
  0
VERTEX
  8
RIVER_STREAM_SINGLE_LINE
 10
509550.00
 20
1148922.00
  0
VERTEX
  8
RIVER_STREAM_SINGLE_LINE
 10
509560.00
 20
1148957.00
  0
VERTEX
  8
RIVER_STREAM_SINGLE_LINE
 10
509569.00
 20
1148974.00
  0
VERTEX
  8
RIVER_STREAM_SINGLE_LINE
 10
509587.00
 20
1148990.00
  0
VERTEX
  8
RIVER_STREAM_SINGLE_LINE
 10
509606.00
 20
1149016.00
  0
VERTEX
  8
RIVER_STREAM_SINGLE_LINE
 10
509608.00
 20
1149036.00
  0
VERTEX
  8
RIVER_STREAM_SINGLE_LINE
 10
509597.00
 20
1149056.00
  0
VERTEX
  8
RIVER_STREAM_SINGLE_LINE
 10
509591.00
 20
1149068.00
  0
VERTEX
  8
RIVER_STREAM_SINGLE_LINE
 10
509603.00
 20
1149101.00
  0
VERTEX
  8
RIVER_STREAM_SINGLE_LINE
 10
509616.00
 20
1149132.00
  0
VERTEX
  8
RIVER_STREAM_SINGLE_LINE
 10
509631.00
 20
1149154.00
  0
VERTEX
  8
RIVER_STREAM_SINGLE_LINE
 10
509647.00
 20
1149171.00
  0
VERTEX
  8
RIVER_STREAM_SINGLE_LINE
 10
509657.00
 20
1149193.00
  0
VERTEX
  8
RIVER_STREAM_SINGLE_LINE
 10
509673.00
 20
1149230.00
  0
VERTEX
  8
RIVER_STREAM_SINGLE_LINE
 10
509689.00
 20
1149266.00
  0
VERTEX
  8
RIVER_STREAM_SINGLE_LINE
 10
509700.00
 20
1149297.00
  0
VERTEX
  8
RIVER_STREAM_SINGLE_LINE
 10
509714.00
 20
1149330.00
  0
VERTEX
  8
RIVER_STREAM_SINGLE_LINE
 10
509724.00
 20
1149361.00
  0
VERTEX
  8
RIVER_STREAM_SINGLE_LINE
 10
509735.00
 20
1149391.00
  0
VERTEX
  8
RIVER_STREAM_SINGLE_LINE
 10
509746.00
 20
1149408.00
  0
VERTEX
  8
RIVER_STREAM_SINGLE_LINE
 10
509763.00
 20
1149419.00
  0
VERTEX
  8
RIVER_STREAM_SINGLE_LINE
 10
509779.00
 20
1149428.00
  0
VERTEX
  8
RIVER_STREAM_SINGLE_LINE
 10
509798.00
 20
1149436.00
  0
VERTEX
  8
RIVER_STREAM_SINGLE_LINE
 10
509814.00
 20
1149444.00
  0
VERTEX
  8
RIVER_STREAM_SINGLE_LINE
 10
509825.00
 20
1149463.00
  0
VERTEX
  8
RIVER_STREAM_SINGLE_LINE
 10
509835.00
 20
1149488.00
  0
VERTEX
  8
RIVER_STREAM_SINGLE_LINE
 10
509843.00
 20
1149506.00
  0
VERTEX
  8
RIVER_STREAM_SINGLE_LINE
 10
509855.00
 20
1149521.00
  0
VERTEX
  8
RIVER_STREAM_SINGLE_LINE
 10
509864.00
 20
1149541.00
  0
VERTEX
  8
RIVER_STREAM_SINGLE_LINE
 10
509874.00
 20
1149561.00
  0
VERTEX
  8
RIVER_STREAM_SINGLE_LINE
 10
509885.00
 20
1149577.00
  0
VERTEX
  8
RIVER_STREAM_SINGLE_LINE
 10
509903.00
 20
1149588.00
  0
VERTEX
  8
RIVER_STREAM_SINGLE_LINE
 10
509921.00
 20
1149592.00
  0
VERTEX
  8
RIVER_STREAM_SINGLE_LINE
 10
509954.00
 20
1149593.00
  0
VERTEX
  8
RIVER_STREAM_SINGLE_LINE
 10
509980.00
 20
1149591.00
  0
VERTEX
  8
RIVER_STREAM_SINGLE_LINE
 10
510000.00
 20
1149586.00
  0
SEQEND
  8
RIVER_STREAM_SINGLE_LINE
  0
POLYLINE
  8
VIRTUAL_SEGMENT_STREAM
 66
     1
 62
     2
  6
CONTINUOUS
  0
VERTEX
  8
VIRTUAL_SEGMENT_STREAM
 10
509546.00
 20
1148893.00
  0
VERTEX
  8
VIRTUAL_SEGMENT_STREAM
 10
509537.00
 20
1148884.00
  0
SEQEND
  8
VIRTUAL_SEGMENT_STREAM
  0
POLYLINE
  8
RIVER_STREAM_SINGLE_LINE
 66
     1
 62
     5
  6
CONTINUOUS
  0
VERTEX
  8
RIVER_STREAM_SINGLE_LINE
 10
508632.00
 20
1148880.00
  0
VERTEX
  8
RIVER_STREAM_SINGLE_LINE
 10
508630.00
 20
1148888.00
  0
SEQEND
  8
RIVER_STREAM_SINGLE_LINE
  0
POLYLINE
  8
RIVER_STREAM_SINGLE_LINE
 66
     1
 62
     5
  6
CONTINUOUS
  0
VERTEX
  8
RIVER_STREAM_SINGLE_LINE
 10
508633.00
 20
1148876.00
  0
VERTEX
  8
RIVER_STREAM_SINGLE_LINE
 10
508632.00
 20
1148880.00
  0
SEQEND
  8
RIVER_STREAM_SINGLE_LINE
  0
POLYLINE
  8
VIRTUAL_SEGMENT_STREAM
 66
     1
 62
     2
  6
CONTINUOUS
  0
VERTEX
  8
VIRTUAL_SEGMENT_STREAM
 10
508633.00
 20
1148876.00
  0
VERTEX
  8
VIRTUAL_SEGMENT_STREAM
 10
508636.00
 20
1148854.00
  0
SEQEND
  8
VIRTUAL_SEGMENT_STREAM
  0
POLYLINE
  8
RIVER_STREAM_SINGLE_LINE
 66
     1
 62
     5
  6
CONTINUOUS
  0
VERTEX
  8
RIVER_STREAM_SINGLE_LINE
 10
509456.00
 20
1148820.00
  0
VERTEX
  8
RIVER_STREAM_SINGLE_LINE
 10
509453.00
 20
1148825.00
  0
VERTEX
  8
RIVER_STREAM_SINGLE_LINE
 10
509455.00
 20
1148833.00
  0
VERTEX
  8
RIVER_STREAM_SINGLE_LINE
 10
509464.00
 20
1148845.00
  0
VERTEX
  8
RIVER_STREAM_SINGLE_LINE
 10
509506.00
 20
1148851.00
  0
VERTEX
  8
RIVER_STREAM_SINGLE_LINE
 10
509524.00
 20
1148852.00
  0
VERTEX
  8
RIVER_STREAM_SINGLE_LINE
 10
509532.00
 20
1148864.00
  0
VERTEX
  8
RIVER_STREAM_SINGLE_LINE
 10
509537.00
 20
1148884.00
  0
SEQEND
  8
RIVER_STREAM_SINGLE_LINE
  0
POLYLINE
  8
RIVER_STREAM_SINGLE_LINE
 66
     1
 62
     5
  6
CONTINUOUS
  0
VERTEX
  8
RIVER_STREAM_SINGLE_LINE
 10
509333.00
 20
1148787.00
  0
VERTEX
  8
RIVER_STREAM_SINGLE_LINE
 10
509346.00
 20
1148785.00
  0
VERTEX
  8
RIVER_STREAM_SINGLE_LINE
 10
509365.00
 20
1148779.00
  0
VERTEX
  8
RIVER_STREAM_SINGLE_LINE
 10
509384.00
 20
1148784.00
  0
VERTEX
  8
RIVER_STREAM_SINGLE_LINE
 10
509403.00
 20
1148796.00
  0
VERTEX
  8
RIVER_STREAM_SINGLE_LINE
 10
509420.00
 20
1148810.00
  0
VERTEX
  8
RIVER_STREAM_SINGLE_LINE
 10
509428.00
 20
1148816.00
  0
VERTEX
  8
RIVER_STREAM_SINGLE_LINE
 10
509441.00
 20
1148811.00
  0
VERTEX
  8
RIVER_STREAM_SINGLE_LINE
 10
509450.00
 20
1148811.00
  0
VERTEX
  8
RIVER_STREAM_SINGLE_LINE
 10
509456.00
 20
1148820.00
  0
SEQEND
  8
RIVER_STREAM_SINGLE_LINE
  0
POLYLINE
  8
RIVER_STREAM_SINGLE_LINE
 66
     1
 62
     5
  6
CONTINUOUS
  0
VERTEX
  8
RIVER_STREAM_SINGLE_LINE
 10
509456.00
 20
1148820.00
  0
VERTEX
  8
RIVER_STREAM_SINGLE_LINE
 10
509478.00
 20
1148820.00
  0
VERTEX
  8
RIVER_STREAM_SINGLE_LINE
 10
509495.00
 20
1148822.00
  0
VERTEX
  8
RIVER_STREAM_SINGLE_LINE
 10
509497.00
 20
1148814.00
  0
VERTEX
  8
RIVER_STREAM_SINGLE_LINE
 10
509506.00
 20
1148805.00
  0
VERTEX
  8
RIVER_STREAM_SINGLE_LINE
 10
509523.00
 20
1148818.00
  0
VERTEX
  8
RIVER_STREAM_SINGLE_LINE
 10
509534.00
 20
1148807.00
  0
VERTEX
  8
RIVER_STREAM_SINGLE_LINE
 10
509542.00
 20
1148816.00
  0
VERTEX
  8
RIVER_STREAM_SINGLE_LINE
 10
509547.00
 20
1148820.00
  0
VERTEX
  8
RIVER_STREAM_SINGLE_LINE
 10
509560.00
 20
1148814.00
  0
VERTEX
  8
RIVER_STREAM_SINGLE_LINE
 10
509576.00
 20
1148797.00
  0
VERTEX
  8
RIVER_STREAM_SINGLE_LINE
 10
509587.00
 20
1148787.00
  0
VERTEX
  8
RIVER_STREAM_SINGLE_LINE
 10
509595.00
 20
1148783.00
  0
VERTEX
  8
RIVER_STREAM_SINGLE_LINE
 10
509609.00
 20
1148788.00
  0
VERTEX
  8
RIVER_STREAM_SINGLE_LINE
 10
509623.00
 20
1148776.00
  0
VERTEX
  8
RIVER_STREAM_SINGLE_LINE
 10
509631.00
 20
1148769.00
  0
VERTEX
  8
RIVER_STREAM_SINGLE_LINE
 10
509643.00
 20
1148770.00
  0
VERTEX
  8
RIVER_STREAM_SINGLE_LINE
 10
509655.00
 20
1148783.00
  0
VERTEX
  8
RIVER_STREAM_SINGLE_LINE
 10
509663.00
 20
1148803.00
  0
VERTEX
  8
RIVER_STREAM_SINGLE_LINE
 10
509674.00
 20
1148834.00
  0
VERTEX
  8
RIVER_STREAM_SINGLE_LINE
 10
509680.00
 20
1148847.00
  0
VERTEX
  8
RIVER_STREAM_SINGLE_LINE
 10
509686.00
 20
1148848.00
  0
VERTEX
  8
RIVER_STREAM_SINGLE_LINE
 10
509706.00
 20
1148846.00
  0
VERTEX
  8
RIVER_STREAM_SINGLE_LINE
 10
509717.00
 20
1148851.00
  0
VERTEX
  8
RIVER_STREAM_SINGLE_LINE
 10
509725.00
 20
1148864.00
  0
VERTEX
  8
RIVER_STREAM_SINGLE_LINE
 10
509736.00
 20
1148864.00
  0
SEQEND
  8
RIVER_STREAM_SINGLE_LINE
  0
POLYLINE
  8
RIVER_STREAM_SINGLE_LINE
 66
     1
 62
     5
  6
CONTINUOUS
  0
VERTEX
  8
RIVER_STREAM_SINGLE_LINE
 10
509310.00
 20
1148788.00
  0
VERTEX
  8
RIVER_STREAM_SINGLE_LINE
 10
509294.00
 20
1148794.00
  0
VERTEX
  8
RIVER_STREAM_SINGLE_LINE
 10
509282.00
 20
1148787.00
  0
VERTEX
  8
RIVER_STREAM_SINGLE_LINE
 10
509263.00
 20
1148788.00
  0
VERTEX
  8
RIVER_STREAM_SINGLE_LINE
 10
509258.00
 20
1148796.00
  0
VERTEX
  8
RIVER_STREAM_SINGLE_LINE
 10
509250.00
 20
1148803.00
  0
VERTEX
  8
RIVER_STREAM_SINGLE_LINE
 10
509234.00
 20
1148802.00
  0
VERTEX
  8
RIVER_STREAM_SINGLE_LINE
 10
509216.00
 20
1148797.00
  0
VERTEX
  8
RIVER_STREAM_SINGLE_LINE
 10
509206.00
 20
1148799.00
  0
VERTEX
  8
RIVER_STREAM_SINGLE_LINE
 10
509197.00
 20
1148797.00
  0
VERTEX
  8
RIVER_STREAM_SINGLE_LINE
 10
509188.00
 20
1148798.00
  0
VERTEX
  8
RIVER_STREAM_SINGLE_LINE
 10
509176.00
 20
1148809.00
  0
VERTEX
  8
RIVER_STREAM_SINGLE_LINE
 10
509160.00
 20
1148819.00
  0
VERTEX
  8
RIVER_STREAM_SINGLE_LINE
 10
509155.00
 20
1148811.00
  0
VERTEX
  8
RIVER_STREAM_SINGLE_LINE
 10
509149.00
 20
1148801.00
  0
VERTEX
  8
RIVER_STREAM_SINGLE_LINE
 10
509141.00
 20
1148798.00
  0
VERTEX
  8
RIVER_STREAM_SINGLE_LINE
 10
509135.00
 20
1148801.00
  0
VERTEX
  8
RIVER_STREAM_SINGLE_LINE
 10
509126.00
 20
1148809.00
  0
VERTEX
  8
RIVER_STREAM_SINGLE_LINE
 10
509115.00
 20
1148814.00
  0
VERTEX
  8
RIVER_STREAM_SINGLE_LINE
 10
509106.00
 20
1148803.00
  0
VERTEX
  8
RIVER_STREAM_SINGLE_LINE
 10
509099.00
 20
1148791.00
  0
VERTEX
  8
RIVER_STREAM_SINGLE_LINE
 10
509093.00
 20
1148785.00
  0
VERTEX
  8
RIVER_STREAM_SINGLE_LINE
 10
509083.00
 20
1148785.00
  0
VERTEX
  8
RIVER_STREAM_SINGLE_LINE
 10
509056.00
 20
1148793.00
  0
VERTEX
  8
RIVER_STREAM_SINGLE_LINE
 10
509030.00
 20
1148799.00
  0
VERTEX
  8
RIVER_STREAM_SINGLE_LINE
 10
508998.00
 20
1148802.00
  0
VERTEX
  8
RIVER_STREAM_SINGLE_LINE
 10
508962.00
 20
1148802.00
  0
VERTEX
  8
RIVER_STREAM_SINGLE_LINE
 10
508930.00
 20
1148795.00
  0
VERTEX
  8
RIVER_STREAM_SINGLE_LINE
 10
508894.00
 20
1148790.00
  0
VERTEX
  8
RIVER_STREAM_SINGLE_LINE
 10
508869.00
 20
1148783.00
  0
VERTEX
  8
RIVER_STREAM_SINGLE_LINE
 10
508850.00
 20
1148781.00
  0
VERTEX
  8
RIVER_STREAM_SINGLE_LINE
 10
508822.00
 20
1148780.00
  0
VERTEX
  8
RIVER_STREAM_SINGLE_LINE
 10
508790.00
 20
1148776.00
  0
VERTEX
  8
RIVER_STREAM_SINGLE_LINE
 10
508756.00
 20
1148769.00
  0
VERTEX
  8
RIVER_STREAM_SINGLE_LINE
 10
508728.00
 20
1148764.00
  0
VERTEX
  8
RIVER_STREAM_SINGLE_LINE
 10
508687.00
 20
1148761.00
  0
VERTEX
  8
RIVER_STREAM_SINGLE_LINE
 10
508665.00
 20
1148757.00
  0
VERTEX
  8
RIVER_STREAM_SINGLE_LINE
 10
508653.00
 20
1148758.00
  0
VERTEX
  8
RIVER_STREAM_SINGLE_LINE
 10
508643.00
 20
1148761.00
  0
VERTEX
  8
RIVER_STREAM_SINGLE_LINE
 10
508637.00
 20
1148771.00
  0
VERTEX
  8
RIVER_STREAM_SINGLE_LINE
 10
508635.00
 20
1148788.00
  0
VERTEX
  8
RIVER_STREAM_SINGLE_LINE
 10
508634.00
 20
1148813.00
  0
VERTEX
  8
RIVER_STREAM_SINGLE_LINE
 10
508633.00
 20
1148833.00
  0
VERTEX
  8
RIVER_STREAM_SINGLE_LINE
 10
508636.00
 20
1148844.00
  0
VERTEX
  8
RIVER_STREAM_SINGLE_LINE
 10
508636.00
 20
1148854.00
  0
SEQEND
  8
RIVER_STREAM_SINGLE_LINE
  0
POLYLINE
  8
RIVER_STREAM_SINGLE_LINE
 66
     1
 62
     5
  6
CONTINUOUS
  0
VERTEX
  8
RIVER_STREAM_SINGLE_LINE
 10
505278.00
 20
1148973.00
  0
VERTEX
  8
RIVER_STREAM_SINGLE_LINE
 10
505278.00
 20
1148963.00
  0
VERTEX
  8
RIVER_STREAM_SINGLE_LINE
 10
505277.00
 20
1148957.00
  0
VERTEX
  8
RIVER_STREAM_SINGLE_LINE
 10
505275.00
 20
1148953.00
  0
VERTEX
  8
RIVER_STREAM_SINGLE_LINE
 10
505273.00
 20
1148949.00
  0
VERTEX
  8
RIVER_STREAM_SINGLE_LINE
 10
505270.00
 20
1148944.00
  0
VERTEX
  8
RIVER_STREAM_SINGLE_LINE
 10
505269.00
 20
1148940.00
  0
VERTEX
  8
RIVER_STREAM_SINGLE_LINE
 10
505267.00
 20
1148937.00
  0
VERTEX
  8
RIVER_STREAM_SINGLE_LINE
 10
505266.00
 20
1148933.00
  0
VERTEX
  8
RIVER_STREAM_SINGLE_LINE
 10
505263.00
 20
1148926.00
  0
VERTEX
  8
RIVER_STREAM_SINGLE_LINE
 10
505262.00
 20
1148921.00
  0
VERTEX
  8
RIVER_STREAM_SINGLE_LINE
 10
505262.00
 20
1148910.00
  0
VERTEX
  8
RIVER_STREAM_SINGLE_LINE
 10
505262.00
 20
1148904.00
  0
VERTEX
  8
RIVER_STREAM_SINGLE_LINE
 10
505263.00
 20
1148897.00
  0
VERTEX
  8
RIVER_STREAM_SINGLE_LINE
 10
505264.00
 20
1148885.00
  0
VERTEX
  8
RIVER_STREAM_SINGLE_LINE
 10
505263.00
 20
1148873.00
  0
VERTEX
  8
RIVER_STREAM_SINGLE_LINE
 10
505264.00
 20
1148860.00
  0
VERTEX
  8
RIVER_STREAM_SINGLE_LINE
 10
505263.00
 20
1148845.00
  0
VERTEX
  8
RIVER_STREAM_SINGLE_LINE
 10
505264.00
 20
1148831.00
  0
VERTEX
  8
RIVER_STREAM_SINGLE_LINE
 10
505265.00
 20
1148819.00
  0
VERTEX
  8
RIVER_STREAM_SINGLE_LINE
 10
505265.00
 20
1148807.00
  0
VERTEX
  8
RIVER_STREAM_SINGLE_LINE
 10
505265.00
 20
1148796.00
  0
VERTEX
  8
RIVER_STREAM_SINGLE_LINE
 10
505266.00
 20
1148790.00
  0
VERTEX
  8
RIVER_STREAM_SINGLE_LINE
 10
505267.00
 20
1148780.00
  0
VERTEX
  8
RIVER_STREAM_SINGLE_LINE
 10
505267.00
 20
1148771.00
  0
VERTEX
  8
RIVER_STREAM_SINGLE_LINE
 10
505268.00
 20
1148766.00
  0
VERTEX
  8
RIVER_STREAM_SINGLE_LINE
 10
505269.00
 20
1148758.00
  0
VERTEX
  8
RIVER_STREAM_SINGLE_LINE
 10
505270.00
 20
1148751.00
  0
VERTEX
  8
RIVER_STREAM_SINGLE_LINE
 10
505270.00
 20
1148744.00
  0
VERTEX
  8
RIVER_STREAM_SINGLE_LINE
 10
505270.00
 20
1148738.00
  0
SEQEND
  8
RIVER_STREAM_SINGLE_LINE
  0
POLYLINE
  8
VIRTUAL_SEGMENT_STREAM
 66
     1
 62
     2
  6
CONTINUOUS
  0
VERTEX
  8
VIRTUAL_SEGMENT_STREAM
 10
505270.00
 20
1148738.00
  0
VERTEX
  8
VIRTUAL_SEGMENT_STREAM
 10
505271.00
 20
1148724.00
  0
SEQEND
  8
VIRTUAL_SEGMENT_STREAM
  0
POLYLINE
  8
RIVER_STREAM_SINGLE_LINE
 66
     1
 62
     5
  6
CONTINUOUS
  0
VERTEX
  8
RIVER_STREAM_SINGLE_LINE
 10
500766.00
 20
1148638.00
  0
VERTEX
  8
RIVER_STREAM_SINGLE_LINE
 10
500770.00
 20
1148661.00
  0
VERTEX
  8
RIVER_STREAM_SINGLE_LINE
 10
500778.00
 20
1148682.00
  0
VERTEX
  8
RIVER_STREAM_SINGLE_LINE
 10
500785.00
 20
1148706.00
  0
VERTEX
  8
RIVER_STREAM_SINGLE_LINE
 10
500789.00
 20
1148722.00
  0
VERTEX
  8
RIVER_STREAM_SINGLE_LINE
 10
500799.00
 20
1148741.00
  0
VERTEX
  8
RIVER_STREAM_SINGLE_LINE
 10
500812.00
 20
1148764.00
  0
VERTEX
  8
RIVER_STREAM_SINGLE_LINE
 10
500827.00
 20
1148785.00
  0
VERTEX
  8
RIVER_STREAM_SINGLE_LINE
 10
500833.00
 20
1148802.00
  0
VERTEX
  8
RIVER_STREAM_SINGLE_LINE
 10
500839.00
 20
1148816.00
  0
VERTEX
  8
RIVER_STREAM_SINGLE_LINE
 10
500850.00
 20
1148828.00
  0
VERTEX
  8
RIVER_STREAM_SINGLE_LINE
 10
500877.00
 20
1148834.00
  0
VERTEX
  8
RIVER_STREAM_SINGLE_LINE
 10
500894.00
 20
1148842.00
  0
VERTEX
  8
RIVER_STREAM_SINGLE_LINE
 10
500905.00
 20
1148863.00
  0
VERTEX
  8
RIVER_STREAM_SINGLE_LINE
 10
500913.00
 20
1148889.00
  0
VERTEX
  8
RIVER_STREAM_SINGLE_LINE
 10
500923.00
 20
1148919.00
  0
SEQEND
  8
RIVER_STREAM_SINGLE_LINE
  0
POLYLINE
  8
RIVER_STREAM_SINGLE_LINE
 66
     1
 62
     5
  6
CONTINUOUS
  0
VERTEX
  8
RIVER_STREAM_SINGLE_LINE
 10
505271.00
 20
1148724.00
  0
VERTEX
  8
RIVER_STREAM_SINGLE_LINE
 10
505271.00
 20
1148712.00
  0
VERTEX
  8
RIVER_STREAM_SINGLE_LINE
 10
505271.00
 20
1148708.00
  0
VERTEX
  8
RIVER_STREAM_SINGLE_LINE
 10
505269.00
 20
1148701.00
  0
VERTEX
  8
RIVER_STREAM_SINGLE_LINE
 10
505269.00
 20
1148691.00
  0
VERTEX
  8
RIVER_STREAM_SINGLE_LINE
 10
505267.00
 20
1148680.00
  0
VERTEX
  8
RIVER_STREAM_SINGLE_LINE
 10
505267.00
 20
1148677.00
  0
VERTEX
  8
RIVER_STREAM_SINGLE_LINE
 10
505266.00
 20
1148669.00
  0
VERTEX
  8
RIVER_STREAM_SINGLE_LINE
 10
505263.00
 20
1148659.00
  0
VERTEX
  8
RIVER_STREAM_SINGLE_LINE
 10
505260.00
 20
1148649.00
  0
VERTEX
  8
RIVER_STREAM_SINGLE_LINE
 10
505257.00
 20
1148641.00
  0
VERTEX
  8
RIVER_STREAM_SINGLE_LINE
 10
505254.00
 20
1148631.00
  0
VERTEX
  8
RIVER_STREAM_SINGLE_LINE
 10
505251.00
 20
1148623.00
  0
VERTEX
  8
RIVER_STREAM_SINGLE_LINE
 10
505249.00
 20
1148615.00
  0
VERTEX
  8
RIVER_STREAM_SINGLE_LINE
 10
505247.00
 20
1148607.00
  0
VERTEX
  8
RIVER_STREAM_SINGLE_LINE
 10
505245.00
 20
1148600.00
  0
VERTEX
  8
RIVER_STREAM_SINGLE_LINE
 10
505242.00
 20
1148592.00
  0
VERTEX
  8
RIVER_STREAM_SINGLE_LINE
 10
505240.00
 20
1148581.00
  0
VERTEX
  8
RIVER_STREAM_SINGLE_LINE
 10
505238.00
 20
1148572.00
  0
VERTEX
  8
RIVER_STREAM_SINGLE_LINE
 10
505237.00
 20
1148565.00
  0
VERTEX
  8
RIVER_STREAM_SINGLE_LINE
 10
505234.00
 20
1148555.00
  0
VERTEX
  8
RIVER_STREAM_SINGLE_LINE
 10
505234.00
 20
1148547.00
  0
VERTEX
  8
RIVER_STREAM_SINGLE_LINE
 10
505234.00
 20
1148542.00
  0
VERTEX
  8
RIVER_STREAM_SINGLE_LINE
 10
505234.00
 20
1148534.00
  0
VERTEX
  8
RIVER_STREAM_SINGLE_LINE
 10
505235.00
 20
1148524.00
  0
VERTEX
  8
RIVER_STREAM_SINGLE_LINE
 10
505236.00
 20
1148514.00
  0
VERTEX
  8
RIVER_STREAM_SINGLE_LINE
 10
505237.00
 20
1148505.00
  0
VERTEX
  8
RIVER_STREAM_SINGLE_LINE
 10
505239.00
 20
1148498.00
  0
VERTEX
  8
RIVER_STREAM_SINGLE_LINE
 10
505241.00
 20
1148486.00
  0
VERTEX
  8
RIVER_STREAM_SINGLE_LINE
 10
505243.00
 20
1148475.00
  0
VERTEX
  8
RIVER_STREAM_SINGLE_LINE
 10
505245.00
 20
1148464.00
  0
VERTEX
  8
RIVER_STREAM_SINGLE_LINE
 10
505246.00
 20
1148454.00
  0
VERTEX
  8
RIVER_STREAM_SINGLE_LINE
 10
505248.00
 20
1148443.00
  0
VERTEX
  8
RIVER_STREAM_SINGLE_LINE
 10
505249.00
 20
1148438.00
  0
VERTEX
  8
RIVER_STREAM_SINGLE_LINE
 10
505251.00
 20
1148424.00
  0
VERTEX
  8
RIVER_STREAM_SINGLE_LINE
 10
505252.00
 20
1148412.00
  0
VERTEX
  8
RIVER_STREAM_SINGLE_LINE
 10
505254.00
 20
1148406.00
  0
VERTEX
  8
RIVER_STREAM_SINGLE_LINE
 10
505255.00
 20
1148400.00
  0
VERTEX
  8
RIVER_STREAM_SINGLE_LINE
 10
505255.00
 20
1148387.00
  0
VERTEX
  8
RIVER_STREAM_SINGLE_LINE
 10
505257.00
 20
1148380.00
  0
VERTEX
  8
RIVER_STREAM_SINGLE_LINE
 10
505260.00
 20
1148372.00
  0
VERTEX
  8
RIVER_STREAM_SINGLE_LINE
 10
505261.00
 20
1148367.00
  0
VERTEX
  8
RIVER_STREAM_SINGLE_LINE
 10
505265.00
 20
1148356.00
  0
SEQEND
  8
RIVER_STREAM_SINGLE_LINE
  0
POLYLINE
  8
VIRTUAL_SEGMENT_STREAM
 66
     1
 62
     2
  6
CONTINUOUS
  0
VERTEX
  8
VIRTUAL_SEGMENT_STREAM
 10
505265.00
 20
1148356.00
  0
VERTEX
  8
VIRTUAL_SEGMENT_STREAM
 10
505272.00
 20
1148339.00
  0
SEQEND
  8
VIRTUAL_SEGMENT_STREAM
  0
POLYLINE
  8
RIVER_STREAM_SINGLE_LINE
 66
     1
 62
     5
  6
CONTINUOUS
  0
VERTEX
  8
RIVER_STREAM_SINGLE_LINE
 10
503097.00
 20
1148321.00
  0
VERTEX
  8
RIVER_STREAM_SINGLE_LINE
 10
503094.00
 20
1148311.00
  0
VERTEX
  8
RIVER_STREAM_SINGLE_LINE
 10
503095.00
 20
1148305.00
  0
VERTEX
  8
RIVER_STREAM_SINGLE_LINE
 10
503097.00
 20
1148301.00
  0
VERTEX
  8
RIVER_STREAM_SINGLE_LINE
 10
503099.00
 20
1148298.00
  0
VERTEX
  8
RIVER_STREAM_SINGLE_LINE
 10
503102.00
 20
1148295.00
  0
VERTEX
  8
RIVER_STREAM_SINGLE_LINE
 10
503105.00
 20
1148291.00
  0
VERTEX
  8
RIVER_STREAM_SINGLE_LINE
 10
503106.00
 20
1148287.00
  0
VERTEX
  8
RIVER_STREAM_SINGLE_LINE
 10
503108.00
 20
1148284.00
  0
VERTEX
  8
RIVER_STREAM_SINGLE_LINE
 10
503109.00
 20
1148281.00
  0
VERTEX
  8
RIVER_STREAM_SINGLE_LINE
 10
503111.00
 20
1148277.00
  0
VERTEX
  8
RIVER_STREAM_SINGLE_LINE
 10
503112.00
 20
1148272.00
  0
VERTEX
  8
RIVER_STREAM_SINGLE_LINE
 10
503114.00
 20
1148266.00
  0
VERTEX
  8
RIVER_STREAM_SINGLE_LINE
 10
503114.00
 20
1148260.00
  0
VERTEX
  8
RIVER_STREAM_SINGLE_LINE
 10
503113.00
 20
1148254.00
  0
VERTEX
  8
RIVER_STREAM_SINGLE_LINE
 10
503112.00
 20
1148250.00
  0
VERTEX
  8
RIVER_STREAM_SINGLE_LINE
 10
503110.00
 20
1148244.00
  0
VERTEX
  8
RIVER_STREAM_SINGLE_LINE
 10
503109.00
 20
1148237.00
  0
VERTEX
  8
RIVER_STREAM_SINGLE_LINE
 10
503108.00
 20
1148227.00
  0
SEQEND
  8
RIVER_STREAM_SINGLE_LINE
  0
POLYLINE
  8
VIRTUAL_SEGMENT_STREAM
 66
     1
 62
     2
  6
CONTINUOUS
  0
VERTEX
  8
VIRTUAL_SEGMENT_STREAM
 10
503108.00
 20
1148227.00
  0
VERTEX
  8
VIRTUAL_SEGMENT_STREAM
 10
503109.00
 20
1148205.00
  0
SEQEND
  8
VIRTUAL_SEGMENT_STREAM
  0
POLYLINE
  8
RIVER_STREAM_SINGLE_LINE
 66
     1
 62
     5
  6
CONTINUOUS
  0
VERTEX
  8
RIVER_STREAM_SINGLE_LINE
 10
503109.00
 20
1148205.00
  0
VERTEX
  8
RIVER_STREAM_SINGLE_LINE
 10
503108.00
 20
1148201.00
  0
VERTEX
  8
RIVER_STREAM_SINGLE_LINE
 10
503104.00
 20
1148199.00
  0
VERTEX
  8
RIVER_STREAM_SINGLE_LINE
 10
503103.00
 20
1148196.00
  0
VERTEX
  8
RIVER_STREAM_SINGLE_LINE
 10
503101.00
 20
1148189.00
  0
VERTEX
  8
RIVER_STREAM_SINGLE_LINE
 10
503100.00
 20
1148185.00
  0
VERTEX
  8
RIVER_STREAM_SINGLE_LINE
 10
503099.00
 20
1148182.00
  0
VERTEX
  8
RIVER_STREAM_SINGLE_LINE
 10
503099.00
 20
1148178.00
  0
VERTEX
  8
RIVER_STREAM_SINGLE_LINE
 10
503098.00
 20
1148173.00
  0
VERTEX
  8
RIVER_STREAM_SINGLE_LINE
 10
503098.00
 20
1148167.00
  0
VERTEX
  8
RIVER_STREAM_SINGLE_LINE
 10
503098.00
 20
1148163.00
  0
VERTEX
  8
RIVER_STREAM_SINGLE_LINE
 10
503099.00
 20
1148157.00
  0
VERTEX
  8
RIVER_STREAM_SINGLE_LINE
 10
503100.00
 20
1148152.00
  0
VERTEX
  8
RIVER_STREAM_SINGLE_LINE
 10
503101.00
 20
1148147.00
  0
VERTEX
  8
RIVER_STREAM_SINGLE_LINE
 10
503101.00
 20
1148143.00
  0
VERTEX
  8
RIVER_STREAM_SINGLE_LINE
 10
503102.00
 20
1148139.00
  0
VERTEX
  8
RIVER_STREAM_SINGLE_LINE
 10
503103.00
 20
1148134.00
  0
VERTEX
  8
RIVER_STREAM_SINGLE_LINE
 10
503103.00
 20
1148131.00
  0
VERTEX
  8
RIVER_STREAM_SINGLE_LINE
 10
503104.00
 20
1148127.00
  0
VERTEX
  8
RIVER_STREAM_SINGLE_LINE
 10
503104.00
 20
1148125.00
  0
SEQEND
  8
RIVER_STREAM_SINGLE_LINE
  0
POLYLINE
  8
VIRTUAL_SEGMENT_STREAM
 66
     1
 62
     2
  6
CONTINUOUS
  0
VERTEX
  8
VIRTUAL_SEGMENT_STREAM
 10
503104.00
 20
1148125.00
  0
VERTEX
  8
VIRTUAL_SEGMENT_STREAM
 10
503107.00
 20
1148112.00
  0
SEQEND
  8
VIRTUAL_SEGMENT_STREAM
  0
POLYLINE
  8
RIVER_STREAM_SINGLE_LINE
 66
     1
 62
     5
  6
CONTINUOUS
  0
VERTEX
  8
RIVER_STREAM_SINGLE_LINE
 10
503107.00
 20
1148112.00
  0
VERTEX
  8
RIVER_STREAM_SINGLE_LINE
 10
503111.00
 20
1148102.00
  0
VERTEX
  8
RIVER_STREAM_SINGLE_LINE
 10
503112.00
 20
1148098.00
  0
VERTEX
  8
RIVER_STREAM_SINGLE_LINE
 10
503112.00
 20
1148096.00
  0
VERTEX
  8
RIVER_STREAM_SINGLE_LINE
 10
503114.00
 20
1148092.00
  0
VERTEX
  8
RIVER_STREAM_SINGLE_LINE
 10
503116.00
 20
1148091.00
  0
VERTEX
  8
RIVER_STREAM_SINGLE_LINE
 10
503117.00
 20
1148087.00
  0
VERTEX
  8
RIVER_STREAM_SINGLE_LINE
 10
503118.00
 20
1148084.00
  0
VERTEX
  8
RIVER_STREAM_SINGLE_LINE
 10
503120.00
 20
1148078.00
  0
VERTEX
  8
RIVER_STREAM_SINGLE_LINE
 10
503120.00
 20
1148076.00
  0
VERTEX
  8
RIVER_STREAM_SINGLE_LINE
 10
503121.00
 20
1148071.00
  0
VERTEX
  8
RIVER_STREAM_SINGLE_LINE
 10
503121.00
 20
1148065.00
  0
VERTEX
  8
RIVER_STREAM_SINGLE_LINE
 10
503120.00
 20
1148058.00
  0
VERTEX
  8
RIVER_STREAM_SINGLE_LINE
 10
503119.00
 20
1148052.00
  0
VERTEX
  8
RIVER_STREAM_SINGLE_LINE
 10
503118.00
 20
1148047.00
  0
VERTEX
  8
RIVER_STREAM_SINGLE_LINE
 10
503119.00
 20
1148043.00
  0
SEQEND
  8
RIVER_STREAM_SINGLE_LINE
  0
POLYLINE
  8
RIVER_STREAM_SINGLE_LINE
 66
     1
 62
     5
  6
CONTINUOUS
  0
VERTEX
  8
RIVER_STREAM_SINGLE_LINE
 10
505272.00
 20
1148339.00
  0
VERTEX
  8
RIVER_STREAM_SINGLE_LINE
 10
505275.00
 20
1148331.00
  0
VERTEX
  8
RIVER_STREAM_SINGLE_LINE
 10
505279.00
 20
1148324.00
  0
VERTEX
  8
RIVER_STREAM_SINGLE_LINE
 10
505286.00
 20
1148313.00
  0
VERTEX
  8
RIVER_STREAM_SINGLE_LINE
 10
505291.00
 20
1148305.00
  0
VERTEX
  8
RIVER_STREAM_SINGLE_LINE
 10
505297.00
 20
1148295.00
  0
VERTEX
  8
RIVER_STREAM_SINGLE_LINE
 10
505302.00
 20
1148287.00
  0
VERTEX
  8
RIVER_STREAM_SINGLE_LINE
 10
505307.00
 20
1148276.00
  0
VERTEX
  8
RIVER_STREAM_SINGLE_LINE
 10
505313.00
 20
1148268.00
  0
VERTEX
  8
RIVER_STREAM_SINGLE_LINE
 10
505318.00
 20
1148259.00
  0
VERTEX
  8
RIVER_STREAM_SINGLE_LINE
 10
505323.00
 20
1148253.00
  0
VERTEX
  8
RIVER_STREAM_SINGLE_LINE
 10
505328.00
 20
1148247.00
  0
VERTEX
  8
RIVER_STREAM_SINGLE_LINE
 10
505333.00
 20
1148241.00
  0
VERTEX
  8
RIVER_STREAM_SINGLE_LINE
 10
505336.00
 20
1148233.00
  0
VERTEX
  8
RIVER_STREAM_SINGLE_LINE
 10
505338.00
 20
1148226.00
  0
VERTEX
  8
RIVER_STREAM_SINGLE_LINE
 10
505340.00
 20
1148221.00
  0
VERTEX
  8
RIVER_STREAM_SINGLE_LINE
 10
505341.00
 20
1148210.00
  0
VERTEX
  8
RIVER_STREAM_SINGLE_LINE
 10
505342.00
 20
1148199.00
  0
VERTEX
  8
RIVER_STREAM_SINGLE_LINE
 10
505343.00
 20
1148187.00
  0
VERTEX
  8
RIVER_STREAM_SINGLE_LINE
 10
505345.00
 20
1148174.00
  0
VERTEX
  8
RIVER_STREAM_SINGLE_LINE
 10
505345.00
 20
1148159.00
  0
VERTEX
  8
RIVER_STREAM_SINGLE_LINE
 10
505346.00
 20
1148145.00
  0
VERTEX
  8
RIVER_STREAM_SINGLE_LINE
 10
505347.00
 20
1148133.00
  0
VERTEX
  8
RIVER_STREAM_SINGLE_LINE
 10
505348.00
 20
1148123.00
  0
VERTEX
  8
RIVER_STREAM_SINGLE_LINE
 10
505348.00
 20
1148112.00
  0
VERTEX
  8
RIVER_STREAM_SINGLE_LINE
 10
505349.00
 20
1148103.00
  0
VERTEX
  8
RIVER_STREAM_SINGLE_LINE
 10
505351.00
 20
1148092.00
  0
VERTEX
  8
RIVER_STREAM_SINGLE_LINE
 10
505353.00
 20
1148084.00
  0
VERTEX
  8
RIVER_STREAM_SINGLE_LINE
 10
505355.00
 20
1148079.00
  0
VERTEX
  8
RIVER_STREAM_SINGLE_LINE
 10
505356.00
 20
1148069.00
  0
VERTEX
  8
RIVER_STREAM_SINGLE_LINE
 10
505355.00
 20
1148061.00
  0
VERTEX
  8
RIVER_STREAM_SINGLE_LINE
 10
505352.00
 20
1148050.00
  0
VERTEX
  8
RIVER_STREAM_SINGLE_LINE
 10
505352.00
 20
1148043.00
  0
VERTEX
  8
RIVER_STREAM_SINGLE_LINE
 10
505349.00
 20
1148034.00
  0
SEQEND
  8
RIVER_STREAM_SINGLE_LINE
  0
POLYLINE
  8
VIRTUAL_SEGMENT_STREAM
 66
     1
 62
     2
  6
CONTINUOUS
  0
VERTEX
  8
VIRTUAL_SEGMENT_STREAM
 10
503119.00
 20
1148043.00
  0
VERTEX
  8
VIRTUAL_SEGMENT_STREAM
 10
503113.00
 20
1148029.00
  0
SEQEND
  8
VIRTUAL_SEGMENT_STREAM
  0
POLYLINE
  8
VIRTUAL_SEGMENT_STREAM
 66
     1
 62
     2
  6
CONTINUOUS
  0
VERTEX
  8
VIRTUAL_SEGMENT_STREAM
 10
505349.00
 20
1148034.00
  0
VERTEX
  8
VIRTUAL_SEGMENT_STREAM
 10
505346.00
 20
1148016.00
  0
SEQEND
  8
VIRTUAL_SEGMENT_STREAM
  0
POLYLINE
  8
RIVER_STREAM_SINGLE_LINE
 66
     1
 62
     5
  6
CONTINUOUS
  0
VERTEX
  8
RIVER_STREAM_SINGLE_LINE
 10
500208.00
 20
1147978.00
  0
VERTEX
  8
RIVER_STREAM_SINGLE_LINE
 10
500210.00
 20
1147980.00
  0
VERTEX
  8
RIVER_STREAM_SINGLE_LINE
 10
500214.00
 20
1147987.00
  0
VERTEX
  8
RIVER_STREAM_SINGLE_LINE
 10
500214.00
 20
1147988.00
  0
VERTEX
  8
RIVER_STREAM_SINGLE_LINE
 10
500219.00
 20
1147996.00
  0
VERTEX
  8
RIVER_STREAM_SINGLE_LINE
 10
500227.00
 20
1148006.00
  0
VERTEX
  8
RIVER_STREAM_SINGLE_LINE
 10
500233.00
 20
1148013.00
  0
VERTEX
  8
RIVER_STREAM_SINGLE_LINE
 10
500241.00
 20
1148022.00
  0
VERTEX
  8
RIVER_STREAM_SINGLE_LINE
 10
500248.00
 20
1148029.00
  0
VERTEX
  8
RIVER_STREAM_SINGLE_LINE
 10
500257.00
 20
1148036.00
  0
VERTEX
  8
RIVER_STREAM_SINGLE_LINE
 10
500268.00
 20
1148047.00
  0
VERTEX
  8
RIVER_STREAM_SINGLE_LINE
 10
500275.00
 20
1148054.00
  0
VERTEX
  8
RIVER_STREAM_SINGLE_LINE
 10
500287.00
 20
1148064.00
  0
VERTEX
  8
RIVER_STREAM_SINGLE_LINE
 10
500295.00
 20
1148070.00
  0
VERTEX
  8
RIVER_STREAM_SINGLE_LINE
 10
500304.00
 20
1148077.00
  0
VERTEX
  8
RIVER_STREAM_SINGLE_LINE
 10
500314.00
 20
1148082.00
  0
VERTEX
  8
RIVER_STREAM_SINGLE_LINE
 10
500323.00
 20
1148089.00
  0
VERTEX
  8
RIVER_STREAM_SINGLE_LINE
 10
500330.00
 20
1148094.00
  0
VERTEX
  8
RIVER_STREAM_SINGLE_LINE
 10
500339.00
 20
1148099.00
  0
VERTEX
  8
RIVER_STREAM_SINGLE_LINE
 10
500343.00
 20
1148101.00
  0
VERTEX
  8
RIVER_STREAM_SINGLE_LINE
 10
500354.00
 20
1148106.00
  0
VERTEX
  8
RIVER_STREAM_SINGLE_LINE
 10
500363.00
 20
1148110.00
  0
VERTEX
  8
RIVER_STREAM_SINGLE_LINE
 10
500374.00
 20
1148112.00
  0
SEQEND
  8
RIVER_STREAM_SINGLE_LINE
  0
POLYLINE
  8
VIRTUAL_SEGMENT_STREAM
 66
     1
 62
     2
  6
CONTINUOUS
  0
VERTEX
  8
VIRTUAL_SEGMENT_STREAM
 10
500202.00
 20
1147969.00
  0
VERTEX
  8
VIRTUAL_SEGMENT_STREAM
 10
500208.00
 20
1147978.00
  0
SEQEND
  8
VIRTUAL_SEGMENT_STREAM
  0
POLYLINE
  8
RIVER_STREAM_SINGLE_LINE
 66
     1
 62
     5
  6
CONTINUOUS
  0
VERTEX
  8
RIVER_STREAM_SINGLE_LINE
 10
505346.00
 20
1148016.00
  0
VERTEX
  8
RIVER_STREAM_SINGLE_LINE
 10
505342.00
 20
1148010.00
  0
VERTEX
  8
RIVER_STREAM_SINGLE_LINE
 10
505339.00
 20
1148004.00
  0
VERTEX
  8
RIVER_STREAM_SINGLE_LINE
 10
505338.00
 20
1148000.00
  0
VERTEX
  8
RIVER_STREAM_SINGLE_LINE
 10
505336.00
 20
1147996.00
  0
VERTEX
  8
RIVER_STREAM_SINGLE_LINE
 10
505334.00
 20
1147989.00
  0
VERTEX
  8
RIVER_STREAM_SINGLE_LINE
 10
505334.00
 20
1147986.00
  0
VERTEX
  8
RIVER_STREAM_SINGLE_LINE
 10
505333.00
 20
1147981.00
  0
VERTEX
  8
RIVER_STREAM_SINGLE_LINE
 10
505331.00
 20
1147977.00
  0
VERTEX
  8
RIVER_STREAM_SINGLE_LINE
 10
505327.00
 20
1147971.00
  0
VERTEX
  8
RIVER_STREAM_SINGLE_LINE
 10
505324.00
 20
1147967.00
  0
VERTEX
  8
RIVER_STREAM_SINGLE_LINE
 10
505322.00
 20
1147958.00
  0
SEQEND
  8
RIVER_STREAM_SINGLE_LINE
  0
POLYLINE
  8
VIRTUAL_SEGMENT_STREAM
 66
     1
 62
     2
  6
CONTINUOUS
  0
VERTEX
  8
VIRTUAL_SEGMENT_STREAM
 10
505322.00
 20
1147958.00
  0
VERTEX
  8
VIRTUAL_SEGMENT_STREAM
 10
505312.00
 20
1147945.00
  0
SEQEND
  8
VIRTUAL_SEGMENT_STREAM
  0
POLYLINE
  8
RIVER_STREAM_SINGLE_LINE
 66
     1
 62
     5
  6
CONTINUOUS
  0
VERTEX
  8
RIVER_STREAM_SINGLE_LINE
 10
503113.00
 20
1148029.00
  0
VERTEX
  8
RIVER_STREAM_SINGLE_LINE
 10
503110.00
 20
1148023.00
  0
VERTEX
  8
RIVER_STREAM_SINGLE_LINE
 10
503108.00
 20
1148019.00
  0
VERTEX
  8
RIVER_STREAM_SINGLE_LINE
 10
503107.00
 20
1148014.00
  0
VERTEX
  8
RIVER_STREAM_SINGLE_LINE
 10
503102.00
 20
1148007.00
  0
VERTEX
  8
RIVER_STREAM_SINGLE_LINE
 10
503099.00
 20
1148001.00
  0
VERTEX
  8
RIVER_STREAM_SINGLE_LINE
 10
503094.00
 20
1147996.00
  0
VERTEX
  8
RIVER_STREAM_SINGLE_LINE
 10
503088.00
 20
1147989.00
  0
VERTEX
  8
RIVER_STREAM_SINGLE_LINE
 10
503083.00
 20
1147983.00
  0
VERTEX
  8
RIVER_STREAM_SINGLE_LINE
 10
503080.00
 20
1147977.00
  0
VERTEX
  8
RIVER_STREAM_SINGLE_LINE
 10
503077.00
 20
1147973.00
  0
VERTEX
  8
RIVER_STREAM_SINGLE_LINE
 10
503071.00
 20
1147966.00
  0
VERTEX
  8
RIVER_STREAM_SINGLE_LINE
 10
503069.00
 20
1147960.00
  0
VERTEX
  8
RIVER_STREAM_SINGLE_LINE
 10
503067.00
 20
1147955.00
  0
VERTEX
  8
RIVER_STREAM_SINGLE_LINE
 10
503064.00
 20
1147950.00
  0
VERTEX
  8
RIVER_STREAM_SINGLE_LINE
 10
503058.00
 20
1147943.00
  0
VERTEX
  8
RIVER_STREAM_SINGLE_LINE
 10
503055.00
 20
1147938.00
  0
VERTEX
  8
RIVER_STREAM_SINGLE_LINE
 10
503051.00
 20
1147932.00
  0
VERTEX
  8
RIVER_STREAM_SINGLE_LINE
 10
503047.00
 20
1147924.00
  0
VERTEX
  8
RIVER_STREAM_SINGLE_LINE
 10
503046.00
 20
1147920.00
  0
VERTEX
  8
RIVER_STREAM_SINGLE_LINE
 10
503046.00
 20
1147919.00
  0
SEQEND
  8
RIVER_STREAM_SINGLE_LINE
  0
POLYLINE
  8
RIVER_STREAM_SINGLE_LINE
 66
     1
 62
     5
  6
CONTINUOUS
  0
VERTEX
  8
RIVER_STREAM_SINGLE_LINE
 10
500033.00
 20
1147873.00
  0
VERTEX
  8
RIVER_STREAM_SINGLE_LINE
 10
500041.00
 20
1147878.00
  0
VERTEX
  8
RIVER_STREAM_SINGLE_LINE
 10
500048.00
 20
1147882.00
  0
VERTEX
  8
RIVER_STREAM_SINGLE_LINE
 10
500061.00
 20
1147887.00
  0
VERTEX
  8
RIVER_STREAM_SINGLE_LINE
 10
500070.00
 20
1147890.00
  0
VERTEX
  8
RIVER_STREAM_SINGLE_LINE
 10
500082.00
 20
1147894.00
  0
VERTEX
  8
RIVER_STREAM_SINGLE_LINE
 10
500088.00
 20
1147897.00
  0
VERTEX
  8
RIVER_STREAM_SINGLE_LINE
 10
500102.00
 20
1147904.00
  0
VERTEX
  8
RIVER_STREAM_SINGLE_LINE
 10
500110.00
 20
1147908.00
  0
VERTEX
  8
RIVER_STREAM_SINGLE_LINE
 10
500121.00
 20
1147912.00
  0
VERTEX
  8
RIVER_STREAM_SINGLE_LINE
 10
500127.00
 20
1147914.00
  0
VERTEX
  8
RIVER_STREAM_SINGLE_LINE
 10
500138.00
 20
1147919.00
  0
VERTEX
  8
RIVER_STREAM_SINGLE_LINE
 10
500146.00
 20
1147923.00
  0
VERTEX
  8
RIVER_STREAM_SINGLE_LINE
 10
500156.00
 20
1147929.00
  0
VERTEX
  8
RIVER_STREAM_SINGLE_LINE
 10
500166.00
 20
1147936.00
  0
VERTEX
  8
RIVER_STREAM_SINGLE_LINE
 10
500172.00
 20
1147940.00
  0
VERTEX
  8
RIVER_STREAM_SINGLE_LINE
 10
500178.00
 20
1147947.00
  0
VERTEX
  8
RIVER_STREAM_SINGLE_LINE
 10
500192.00
 20
1147955.00
  0
VERTEX
  8
RIVER_STREAM_SINGLE_LINE
 10
500196.00
 20
1147960.00
  0
VERTEX
  8
RIVER_STREAM_SINGLE_LINE
 10
500200.00
 20
1147963.00
  0
VERTEX
  8
RIVER_STREAM_SINGLE_LINE
 10
500202.00
 20
1147969.00
  0
SEQEND
  8
RIVER_STREAM_SINGLE_LINE
  0
POLYLINE
  8
RIVER_STREAM_SINGLE_LINE
 66
     1
 62
     5
  6
CONTINUOUS
  0
VERTEX
  8
RIVER_STREAM_SINGLE_LINE
 10
508642.00
 20
1147675.00
  0
VERTEX
  8
RIVER_STREAM_SINGLE_LINE
 10
508635.00
 20
1147686.00
  0
VERTEX
  8
RIVER_STREAM_SINGLE_LINE
 10
508624.00
 20
1147698.00
  0
VERTEX
  8
RIVER_STREAM_SINGLE_LINE
 10
508616.00
 20
1147714.00
  0
VERTEX
  8
RIVER_STREAM_SINGLE_LINE
 10
508606.00
 20
1147738.00
  0
VERTEX
  8
RIVER_STREAM_SINGLE_LINE
 10
508594.00
 20
1147765.00
  0
VERTEX
  8
RIVER_STREAM_SINGLE_LINE
 10
508581.00
 20
1147777.00
  0
VERTEX
  8
RIVER_STREAM_SINGLE_LINE
 10
508579.00
 20
1147781.00
  0
VERTEX
  8
RIVER_STREAM_SINGLE_LINE
 10
508576.00
 20
1147787.00
  0
VERTEX
  8
RIVER_STREAM_SINGLE_LINE
 10
508573.00
 20
1147793.00
  0
VERTEX
  8
RIVER_STREAM_SINGLE_LINE
 10
508568.00
 20
1147799.00
  0
VERTEX
  8
RIVER_STREAM_SINGLE_LINE
 10
508563.00
 20
1147808.00
  0
VERTEX
  8
RIVER_STREAM_SINGLE_LINE
 10
508560.00
 20
1147813.00
  0
VERTEX
  8
RIVER_STREAM_SINGLE_LINE
 10
508556.00
 20
1147820.00
  0
VERTEX
  8
RIVER_STREAM_SINGLE_LINE
 10
508551.00
 20
1147828.00
  0
VERTEX
  8
RIVER_STREAM_SINGLE_LINE
 10
508548.00
 20
1147838.00
  0
VERTEX
  8
RIVER_STREAM_SINGLE_LINE
 10
508546.00
 20
1147846.00
  0
VERTEX
  8
RIVER_STREAM_SINGLE_LINE
 10
508545.00
 20
1147855.00
  0
VERTEX
  8
RIVER_STREAM_SINGLE_LINE
 10
508543.00
 20
1147862.00
  0
VERTEX
  8
RIVER_STREAM_SINGLE_LINE
 10
508543.00
 20
1147869.00
  0
VERTEX
  8
RIVER_STREAM_SINGLE_LINE
 10
508543.00
 20
1147876.00
  0
VERTEX
  8
RIVER_STREAM_SINGLE_LINE
 10
508543.00
 20
1147881.00
  0
VERTEX
  8
RIVER_STREAM_SINGLE_LINE
 10
508543.00
 20
1147889.00
  0
VERTEX
  8
RIVER_STREAM_SINGLE_LINE
 10
508543.00
 20
1147896.00
  0
VERTEX
  8
RIVER_STREAM_SINGLE_LINE
 10
508543.00
 20
1147902.00
  0
VERTEX
  8
RIVER_STREAM_SINGLE_LINE
 10
508542.00
 20
1147912.00
  0
VERTEX
  8
RIVER_STREAM_SINGLE_LINE
 10
508542.00
 20
1147916.00
  0
VERTEX
  8
RIVER_STREAM_SINGLE_LINE
 10
508540.00
 20
1147922.00
  0
VERTEX
  8
RIVER_STREAM_SINGLE_LINE
 10
508537.00
 20
1147930.00
  0
VERTEX
  8
RIVER_STREAM_SINGLE_LINE
 10
508534.00
 20
1147933.00
  0
VERTEX
  8
RIVER_STREAM_SINGLE_LINE
 10
508528.00
 20
1147942.00
  0
VERTEX
  8
RIVER_STREAM_SINGLE_LINE
 10
508524.00
 20
1147948.00
  0
VERTEX
  8
RIVER_STREAM_SINGLE_LINE
 10
508520.00
 20
1147955.00
  0
VERTEX
  8
RIVER_STREAM_SINGLE_LINE
 10
508514.00
 20
1147961.00
  0
VERTEX
  8
RIVER_STREAM_SINGLE_LINE
 10
508510.00
 20
1147964.00
  0
VERTEX
  8
RIVER_STREAM_SINGLE_LINE
 10
508507.00
 20
1147970.00
  0
VERTEX
  8
RIVER_STREAM_SINGLE_LINE
 10
508503.00
 20
1147975.00
  0
VERTEX
  8
RIVER_STREAM_SINGLE_LINE
 10
508497.00
 20
1147980.00
  0
VERTEX
  8
RIVER_STREAM_SINGLE_LINE
 10
508490.00
 20
1147985.00
  0
VERTEX
  8
RIVER_STREAM_SINGLE_LINE
 10
508483.00
 20
1147989.00
  0
VERTEX
  8
RIVER_STREAM_SINGLE_LINE
 10
508475.00
 20
1147997.00
  0
VERTEX
  8
RIVER_STREAM_SINGLE_LINE
 10
508472.00
 20
1148001.00
  0
VERTEX
  8
RIVER_STREAM_SINGLE_LINE
 10
508467.00
 20
1148012.00
  0
VERTEX
  8
RIVER_STREAM_SINGLE_LINE
 10
508464.00
 20
1148019.00
  0
VERTEX
  8
RIVER_STREAM_SINGLE_LINE
 10
508462.00
 20
1148022.00
  0
VERTEX
  8
RIVER_STREAM_SINGLE_LINE
 10
508460.00
 20
1148024.00
  0
VERTEX
  8
RIVER_STREAM_SINGLE_LINE
 10
508458.00
 20
1148028.00
  0
VERTEX
  8
RIVER_STREAM_SINGLE_LINE
 10
508457.00
 20
1148036.00
  0
SEQEND
  8
RIVER_STREAM_SINGLE_LINE
  0
POLYLINE
  8
VIRTUAL_SEGMENT_STREAM
 66
     1
 62
     2
  6
CONTINUOUS
  0
VERTEX
  8
VIRTUAL_SEGMENT_STREAM
 10
508642.00
 20
1147675.00
  0
VERTEX
  8
VIRTUAL_SEGMENT_STREAM
 10
508648.00
 20
1147657.00
  0
SEQEND
  8
VIRTUAL_SEGMENT_STREAM
  0
POLYLINE
  8
RIVER_STREAM_SINGLE_LINE
 66
     1
 62
     5
  6
CONTINUOUS
  0
VERTEX
  8
RIVER_STREAM_SINGLE_LINE
 10
508178.00
 20
1147634.00
  0
VERTEX
  8
RIVER_STREAM_SINGLE_LINE
 10
508173.00
 20
1147648.00
  0
VERTEX
  8
RIVER_STREAM_SINGLE_LINE
 10
508169.00
 20
1147666.00
  0
VERTEX
  8
RIVER_STREAM_SINGLE_LINE
 10
508166.00
 20
1147685.00
  0
VERTEX
  8
RIVER_STREAM_SINGLE_LINE
 10
508167.00
 20
1147699.00
  0
VERTEX
  8
RIVER_STREAM_SINGLE_LINE
 10
508169.00
 20
1147718.00
  0
VERTEX
  8
RIVER_STREAM_SINGLE_LINE
 10
508170.00
 20
1147734.00
  0
VERTEX
  8
RIVER_STREAM_SINGLE_LINE
 10
508170.00
 20
1147753.00
  0
VERTEX
  8
RIVER_STREAM_SINGLE_LINE
 10
508166.00
 20
1147772.00
  0
VERTEX
  8
RIVER_STREAM_SINGLE_LINE
 10
508159.00
 20
1147780.00
  0
VERTEX
  8
RIVER_STREAM_SINGLE_LINE
 10
508155.00
 20
1147794.00
  0
VERTEX
  8
RIVER_STREAM_SINGLE_LINE
 10
508155.00
 20
1147802.00
  0
VERTEX
  8
RIVER_STREAM_SINGLE_LINE
 10
508154.00
 20
1147806.00
  0
VERTEX
  8
RIVER_STREAM_SINGLE_LINE
 10
508154.00
 20
1147815.00
  0
VERTEX
  8
RIVER_STREAM_SINGLE_LINE
 10
508155.00
 20
1147822.00
  0
VERTEX
  8
RIVER_STREAM_SINGLE_LINE
 10
508156.00
 20
1147829.00
  0
VERTEX
  8
RIVER_STREAM_SINGLE_LINE
 10
508157.00
 20
1147836.00
  0
VERTEX
  8
RIVER_STREAM_SINGLE_LINE
 10
508158.00
 20
1147848.00
  0
VERTEX
  8
RIVER_STREAM_SINGLE_LINE
 10
508160.00
 20
1147858.00
  0
VERTEX
  8
RIVER_STREAM_SINGLE_LINE
 10
508162.00
 20
1147865.00
  0
VERTEX
  8
RIVER_STREAM_SINGLE_LINE
 10
508166.00
 20
1147876.00
  0
VERTEX
  8
RIVER_STREAM_SINGLE_LINE
 10
508171.00
 20
1147889.00
  0
VERTEX
  8
RIVER_STREAM_SINGLE_LINE
 10
508174.00
 20
1147897.00
  0
VERTEX
  8
RIVER_STREAM_SINGLE_LINE
 10
508177.00
 20
1147906.00
  0
VERTEX
  8
RIVER_STREAM_SINGLE_LINE
 10
508179.00
 20
1147917.00
  0
VERTEX
  8
RIVER_STREAM_SINGLE_LINE
 10
508182.00
 20
1147924.00
  0
VERTEX
  8
RIVER_STREAM_SINGLE_LINE
 10
508184.00
 20
1147930.00
  0
VERTEX
  8
RIVER_STREAM_SINGLE_LINE
 10
508187.00
 20
1147939.00
  0
VERTEX
  8
RIVER_STREAM_SINGLE_LINE
 10
508187.00
 20
1147947.00
  0
VERTEX
  8
RIVER_STREAM_SINGLE_LINE
 10
508187.00
 20
1147955.00
  0
VERTEX
  8
RIVER_STREAM_SINGLE_LINE
 10
508188.00
 20
1147962.00
  0
VERTEX
  8
RIVER_STREAM_SINGLE_LINE
 10
508186.00
 20
1147968.00
  0
VERTEX
  8
RIVER_STREAM_SINGLE_LINE
 10
508183.00
 20
1147973.00
  0
VERTEX
  8
RIVER_STREAM_SINGLE_LINE
 10
508180.00
 20
1147975.00
  0
VERTEX
  8
RIVER_STREAM_SINGLE_LINE
 10
508174.00
 20
1147978.00
  0
VERTEX
  8
RIVER_STREAM_SINGLE_LINE
 10
508169.00
 20
1147983.00
  0
VERTEX
  8
RIVER_STREAM_SINGLE_LINE
 10
508163.00
 20
1147985.00
  0
VERTEX
  8
RIVER_STREAM_SINGLE_LINE
 10
508158.00
 20
1147989.00
  0
VERTEX
  8
RIVER_STREAM_SINGLE_LINE
 10
508151.00
 20
1147992.00
  0
VERTEX
  8
RIVER_STREAM_SINGLE_LINE
 10
508141.00
 20
1148001.00
  0
VERTEX
  8
RIVER_STREAM_SINGLE_LINE
 10
508130.00
 20
1148008.00
  0
VERTEX
  8
RIVER_STREAM_SINGLE_LINE
 10
508124.00
 20
1148010.00
  0
VERTEX
  8
RIVER_STREAM_SINGLE_LINE
 10
508117.00
 20
1148018.00
  0
VERTEX
  8
RIVER_STREAM_SINGLE_LINE
 10
508111.00
 20
1148021.00
  0
VERTEX
  8
RIVER_STREAM_SINGLE_LINE
 10
508106.00
 20
1148022.00
  0
VERTEX
  8
RIVER_STREAM_SINGLE_LINE
 10
508101.00
 20
1148024.00
  0
VERTEX
  8
RIVER_STREAM_SINGLE_LINE
 10
508096.00
 20
1148031.00
  0
VERTEX
  8
RIVER_STREAM_SINGLE_LINE
 10
508086.00
 20
1148037.00
  0
SEQEND
  8
RIVER_STREAM_SINGLE_LINE
  0
POLYLINE
  8
VIRTUAL_SEGMENT_STREAM
 66
     1
 62
     2
  6
CONTINUOUS
  0
VERTEX
  8
VIRTUAL_SEGMENT_STREAM
 10
508178.00
 20
1147634.00
  0
VERTEX
  8
VIRTUAL_SEGMENT_STREAM
 10
508183.00
 20
1147618.00
  0
SEQEND
  8
VIRTUAL_SEGMENT_STREAM
  0
POLYLINE
  8
RIVER_STREAM_SINGLE_LINE
 66
     1
 62
     5
  6
CONTINUOUS
  0
VERTEX
  8
RIVER_STREAM_SINGLE_LINE
 10
508641.00
 20
1147609.00
  0
VERTEX
  8
RIVER_STREAM_SINGLE_LINE
 10
508644.00
 20
1147632.00
  0
VERTEX
  8
RIVER_STREAM_SINGLE_LINE
 10
508648.00
 20
1147656.00
  0
VERTEX
  8
RIVER_STREAM_SINGLE_LINE
 10
508648.00
 20
1147657.00
  0
SEQEND
  8
RIVER_STREAM_SINGLE_LINE
  0
POLYLINE
  8
RIVER_STREAM_SINGLE_LINE
 66
     1
 62
     5
  6
CONTINUOUS
  0
VERTEX
  8
RIVER_STREAM_SINGLE_LINE
 10
505312.00
 20
1147945.00
  0
VERTEX
  8
RIVER_STREAM_SINGLE_LINE
 10
505304.00
 20
1147938.00
  0
VERTEX
  8
RIVER_STREAM_SINGLE_LINE
 10
505302.00
 20
1147935.00
  0
VERTEX
  8
RIVER_STREAM_SINGLE_LINE
 10
505299.00
 20
1147933.00
  0
VERTEX
  8
RIVER_STREAM_SINGLE_LINE
 10
505297.00
 20
1147931.00
  0
VERTEX
  8
RIVER_STREAM_SINGLE_LINE
 10
505295.00
 20
1147928.00
  0
VERTEX
  8
RIVER_STREAM_SINGLE_LINE
 10
505288.00
 20
1147925.00
  0
VERTEX
  8
RIVER_STREAM_SINGLE_LINE
 10
505281.00
 20
1147923.00
  0
VERTEX
  8
RIVER_STREAM_SINGLE_LINE
 10
505273.00
 20
1147921.00
  0
VERTEX
  8
RIVER_STREAM_SINGLE_LINE
 10
505265.00
 20
1147920.00
  0
VERTEX
  8
RIVER_STREAM_SINGLE_LINE
 10
505258.00
 20
1147919.00
  0
VERTEX
  8
RIVER_STREAM_SINGLE_LINE
 10
505250.00
 20
1147918.00
  0
VERTEX
  8
RIVER_STREAM_SINGLE_LINE
 10
505243.00
 20
1147917.00
  0
VERTEX
  8
RIVER_STREAM_SINGLE_LINE
 10
505235.00
 20
1147915.00
  0
VERTEX
  8
RIVER_STREAM_SINGLE_LINE
 10
505227.00
 20
1147913.00
  0
VERTEX
  8
RIVER_STREAM_SINGLE_LINE
 10
505220.00
 20
1147910.00
  0
VERTEX
  8
RIVER_STREAM_SINGLE_LINE
 10
505215.00
 20
1147908.00
  0
VERTEX
  8
RIVER_STREAM_SINGLE_LINE
 10
505209.00
 20
1147906.00
  0
VERTEX
  8
RIVER_STREAM_SINGLE_LINE
 10
505205.00
 20
1147905.00
  0
VERTEX
  8
RIVER_STREAM_SINGLE_LINE
 10
505201.00
 20
1147902.00
  0
VERTEX
  8
RIVER_STREAM_SINGLE_LINE
 10
505197.00
 20
1147900.00
  0
VERTEX
  8
RIVER_STREAM_SINGLE_LINE
 10
505193.00
 20
1147897.00
  0
VERTEX
  8
RIVER_STREAM_SINGLE_LINE
 10
505189.00
 20
1147894.00
  0
VERTEX
  8
RIVER_STREAM_SINGLE_LINE
 10
505185.00
 20
1147889.00
  0
VERTEX
  8
RIVER_STREAM_SINGLE_LINE
 10
505182.00
 20
1147884.00
  0
VERTEX
  8
RIVER_STREAM_SINGLE_LINE
 10
505178.00
 20
1147879.00
  0
VERTEX
  8
RIVER_STREAM_SINGLE_LINE
 10
505174.00
 20
1147875.00
  0
VERTEX
  8
RIVER_STREAM_SINGLE_LINE
 10
505172.00
 20
1147871.00
  0
VERTEX
  8
RIVER_STREAM_SINGLE_LINE
 10
505168.00
 20
1147866.00
  0
VERTEX
  8
RIVER_STREAM_SINGLE_LINE
 10
505164.00
 20
1147860.00
  0
VERTEX
  8
RIVER_STREAM_SINGLE_LINE
 10
505163.00
 20
1147856.00
  0
VERTEX
  8
RIVER_STREAM_SINGLE_LINE
 10
505161.00
 20
1147851.00
  0
VERTEX
  8
RIVER_STREAM_SINGLE_LINE
 10
505160.00
 20
1147847.00
  0
VERTEX
  8
RIVER_STREAM_SINGLE_LINE
 10
505161.00
 20
1147843.00
  0
VERTEX
  8
RIVER_STREAM_SINGLE_LINE
 10
505162.00
 20
1147840.00
  0
VERTEX
  8
RIVER_STREAM_SINGLE_LINE
 10
505162.00
 20
1147836.00
  0
VERTEX
  8
RIVER_STREAM_SINGLE_LINE
 10
505161.00
 20
1147831.00
  0
VERTEX
  8
RIVER_STREAM_SINGLE_LINE
 10
505159.00
 20
1147826.00
  0
VERTEX
  8
RIVER_STREAM_SINGLE_LINE
 10
505155.00
 20
1147821.00
  0
VERTEX
  8
RIVER_STREAM_SINGLE_LINE
 10
505153.00
 20
1147820.00
  0
VERTEX
  8
RIVER_STREAM_SINGLE_LINE
 10
505148.00
 20
1147817.00
  0
VERTEX
  8
RIVER_STREAM_SINGLE_LINE
 10
505143.00
 20
1147815.00
  0
VERTEX
  8
RIVER_STREAM_SINGLE_LINE
 10
505140.00
 20
1147814.00
  0
VERTEX
  8
RIVER_STREAM_SINGLE_LINE
 10
505136.00
 20
1147813.00
  0
VERTEX
  8
RIVER_STREAM_SINGLE_LINE
 10
505131.00
 20
1147810.00
  0
VERTEX
  8
RIVER_STREAM_SINGLE_LINE
 10
505129.00
 20
1147808.00
  0
VERTEX
  8
RIVER_STREAM_SINGLE_LINE
 10
505126.00
 20
1147805.00
  0
VERTEX
  8
RIVER_STREAM_SINGLE_LINE
 10
505124.00
 20
1147801.00
  0
VERTEX
  8
RIVER_STREAM_SINGLE_LINE
 10
505123.00
 20
1147797.00
  0
VERTEX
  8
RIVER_STREAM_SINGLE_LINE
 10
505121.00
 20
1147793.00
  0
VERTEX
  8
RIVER_STREAM_SINGLE_LINE
 10
505119.00
 20
1147788.00
  0
VERTEX
  8
RIVER_STREAM_SINGLE_LINE
 10
505118.00
 20
1147785.00
  0
VERTEX
  8
RIVER_STREAM_SINGLE_LINE
 10
505115.00
 20
1147780.00
  0
VERTEX
  8
RIVER_STREAM_SINGLE_LINE
 10
505111.00
 20
1147777.00
  0
VERTEX
  8
RIVER_STREAM_SINGLE_LINE
 10
505106.00
 20
1147774.00
  0
VERTEX
  8
RIVER_STREAM_SINGLE_LINE
 10
505103.00
 20
1147773.00
  0
VERTEX
  8
RIVER_STREAM_SINGLE_LINE
 10
505098.00
 20
1147770.00
  0
VERTEX
  8
RIVER_STREAM_SINGLE_LINE
 10
505095.00
 20
1147767.00
  0
VERTEX
  8
RIVER_STREAM_SINGLE_LINE
 10
505092.00
 20
1147763.00
  0
VERTEX
  8
RIVER_STREAM_SINGLE_LINE
 10
505090.00
 20
1147758.00
  0
VERTEX
  8
RIVER_STREAM_SINGLE_LINE
 10
505086.00
 20
1147751.00
  0
VERTEX
  8
RIVER_STREAM_SINGLE_LINE
 10
505081.00
 20
1147737.00
  0
VERTEX
  8
RIVER_STREAM_SINGLE_LINE
 10
505078.00
 20
1147731.00
  0
VERTEX
  8
RIVER_STREAM_SINGLE_LINE
 10
505075.00
 20
1147727.00
  0
VERTEX
  8
RIVER_STREAM_SINGLE_LINE
 10
505071.00
 20
1147721.00
  0
VERTEX
  8
RIVER_STREAM_SINGLE_LINE
 10
505068.00
 20
1147715.00
  0
VERTEX
  8
RIVER_STREAM_SINGLE_LINE
 10
505064.00
 20
1147708.00
  0
VERTEX
  8
RIVER_STREAM_SINGLE_LINE
 10
505062.00
 20
1147703.00
  0
VERTEX
  8
RIVER_STREAM_SINGLE_LINE
 10
505060.00
 20
1147698.00
  0
VERTEX
  8
RIVER_STREAM_SINGLE_LINE
 10
505059.00
 20
1147693.00
  0
VERTEX
  8
RIVER_STREAM_SINGLE_LINE
 10
505058.00
 20
1147688.00
  0
VERTEX
  8
RIVER_STREAM_SINGLE_LINE
 10
505057.00
 20
1147682.00
  0
VERTEX
  8
RIVER_STREAM_SINGLE_LINE
 10
505055.00
 20
1147674.00
  0
VERTEX
  8
RIVER_STREAM_SINGLE_LINE
 10
505052.00
 20
1147669.00
  0
VERTEX
  8
RIVER_STREAM_SINGLE_LINE
 10
505050.00
 20
1147662.00
  0
VERTEX
  8
RIVER_STREAM_SINGLE_LINE
 10
505047.00
 20
1147659.00
  0
VERTEX
  8
RIVER_STREAM_SINGLE_LINE
 10
505044.00
 20
1147657.00
  0
VERTEX
  8
RIVER_STREAM_SINGLE_LINE
 10
505040.00
 20
1147653.00
  0
VERTEX
  8
RIVER_STREAM_SINGLE_LINE
 10
505036.00
 20
1147651.00
  0
VERTEX
  8
RIVER_STREAM_SINGLE_LINE
 10
505032.00
 20
1147651.00
  0
VERTEX
  8
RIVER_STREAM_SINGLE_LINE
 10
505026.00
 20
1147650.00
  0
VERTEX
  8
RIVER_STREAM_SINGLE_LINE
 10
505021.00
 20
1147647.00
  0
VERTEX
  8
RIVER_STREAM_SINGLE_LINE
 10
505016.00
 20
1147644.00
  0
VERTEX
  8
RIVER_STREAM_SINGLE_LINE
 10
505013.00
 20
1147641.00
  0
VERTEX
  8
RIVER_STREAM_SINGLE_LINE
 10
505010.00
 20
1147637.00
  0
VERTEX
  8
RIVER_STREAM_SINGLE_LINE
 10
505008.00
 20
1147632.00
  0
VERTEX
  8
RIVER_STREAM_SINGLE_LINE
 10
505007.00
 20
1147629.00
  0
VERTEX
  8
RIVER_STREAM_SINGLE_LINE
 10
505004.00
 20
1147625.00
  0
VERTEX
  8
RIVER_STREAM_SINGLE_LINE
 10
505003.00
 20
1147621.00
  0
VERTEX
  8
RIVER_STREAM_SINGLE_LINE
 10
505001.00
 20
1147617.00
  0
VERTEX
  8
RIVER_STREAM_SINGLE_LINE
 10
504999.00
 20
1147614.00
  0
VERTEX
  8
RIVER_STREAM_SINGLE_LINE
 10
504997.00
 20
1147612.00
  0
VERTEX
  8
RIVER_STREAM_SINGLE_LINE
 10
504993.00
 20
1147609.00
  0
VERTEX
  8
RIVER_STREAM_SINGLE_LINE
 10
504989.00
 20
1147607.00
  0
VERTEX
  8
RIVER_STREAM_SINGLE_LINE
 10
504983.00
 20
1147606.00
  0
VERTEX
  8
RIVER_STREAM_SINGLE_LINE
 10
504978.00
 20
1147607.00
  0
VERTEX
  8
RIVER_STREAM_SINGLE_LINE
 10
504972.00
 20
1147609.00
  0
VERTEX
  8
RIVER_STREAM_SINGLE_LINE
 10
504968.00
 20
1147612.00
  0
VERTEX
  8
RIVER_STREAM_SINGLE_LINE
 10
504963.00
 20
1147615.00
  0
VERTEX
  8
RIVER_STREAM_SINGLE_LINE
 10
504961.00
 20
1147617.00
  0
VERTEX
  8
RIVER_STREAM_SINGLE_LINE
 10
504958.00
 20
1147618.00
  0
VERTEX
  8
RIVER_STREAM_SINGLE_LINE
 10
504953.00
 20
1147619.00
  0
VERTEX
  8
RIVER_STREAM_SINGLE_LINE
 10
504949.00
 20
1147618.00
  0
VERTEX
  8
RIVER_STREAM_SINGLE_LINE
 10
504943.00
 20
1147617.00
  0
VERTEX
  8
RIVER_STREAM_SINGLE_LINE
 10
504934.00
 20
1147614.00
  0
VERTEX
  8
RIVER_STREAM_SINGLE_LINE
 10
504932.00
 20
1147617.00
  0
SEQEND
  8
RIVER_STREAM_SINGLE_LINE
  0
POLYLINE
  8
VIRTUAL_SEGMENT_STREAM
 66
     1
 62
     2
  6
CONTINUOUS
  0
VERTEX
  8
VIRTUAL_SEGMENT_STREAM
 10
504932.00
 20
1147617.00
  0
VERTEX
  8
VIRTUAL_SEGMENT_STREAM
 10
504913.00
 20
1147598.00
  0
SEQEND
  8
VIRTUAL_SEGMENT_STREAM
  0
POLYLINE
  8
RIVER_STREAM_SINGLE_LINE
 66
     1
 62
     5
  6
CONTINUOUS
  0
VERTEX
  8
RIVER_STREAM_SINGLE_LINE
 10
508430.00
 20
1147506.00
  0
VERTEX
  8
RIVER_STREAM_SINGLE_LINE
 10
508455.00
 20
1147529.00
  0
VERTEX
  8
RIVER_STREAM_SINGLE_LINE
 10
508484.00
 20
1147554.00
  0
VERTEX
  8
RIVER_STREAM_SINGLE_LINE
 10
508513.00
 20
1147578.00
  0
VERTEX
  8
RIVER_STREAM_SINGLE_LINE
 10
508539.00
 20
1147597.00
  0
VERTEX
  8
RIVER_STREAM_SINGLE_LINE
 10
508567.00
 20
1147609.00
  0
VERTEX
  8
RIVER_STREAM_SINGLE_LINE
 10
508593.00
 20
1147617.00
  0
VERTEX
  8
RIVER_STREAM_SINGLE_LINE
 10
508614.00
 20
1147616.00
  0
VERTEX
  8
RIVER_STREAM_SINGLE_LINE
 10
508641.00
 20
1147609.00
  0
SEQEND
  8
RIVER_STREAM_SINGLE_LINE
  0
POLYLINE
  8
RIVER_STREAM_SINGLE_LINE
 66
     1
 62
     5
  6
CONTINUOUS
  0
VERTEX
  8
RIVER_STREAM_SINGLE_LINE
 10
508430.00
 20
1147506.00
  0
VERTEX
  8
RIVER_STREAM_SINGLE_LINE
 10
508422.00
 20
1147527.00
  0
VERTEX
  8
RIVER_STREAM_SINGLE_LINE
 10
508412.00
 20
1147539.00
  0
VERTEX
  8
RIVER_STREAM_SINGLE_LINE
 10
508391.00
 20
1147543.00
  0
VERTEX
  8
RIVER_STREAM_SINGLE_LINE
 10
508368.00
 20
1147544.00
  0
VERTEX
  8
RIVER_STREAM_SINGLE_LINE
 10
508349.00
 20
1147543.00
  0
VERTEX
  8
RIVER_STREAM_SINGLE_LINE
 10
508336.00
 20
1147554.00
  0
VERTEX
  8
RIVER_STREAM_SINGLE_LINE
 10
508322.00
 20
1147569.00
  0
VERTEX
  8
RIVER_STREAM_SINGLE_LINE
 10
508306.00
 20
1147582.00
  0
VERTEX
  8
RIVER_STREAM_SINGLE_LINE
 10
508288.00
 20
1147587.00
  0
VERTEX
  8
RIVER_STREAM_SINGLE_LINE
 10
508269.00
 20
1147585.00
  0
VERTEX
  8
RIVER_STREAM_SINGLE_LINE
 10
508258.00
 20
1147580.00
  0
VERTEX
  8
RIVER_STREAM_SINGLE_LINE
 10
508246.00
 20
1147576.00
  0
VERTEX
  8
RIVER_STREAM_SINGLE_LINE
 10
508234.00
 20
1147576.00
  0
VERTEX
  8
RIVER_STREAM_SINGLE_LINE
 10
508222.00
 20
1147578.00
  0
VERTEX
  8
RIVER_STREAM_SINGLE_LINE
 10
508215.00
 20
1147587.00
  0
VERTEX
  8
RIVER_STREAM_SINGLE_LINE
 10
508207.00
 20
1147597.00
  0
VERTEX
  8
RIVER_STREAM_SINGLE_LINE
 10
508198.00
 20
1147607.00
  0
VERTEX
  8
RIVER_STREAM_SINGLE_LINE
 10
508187.00
 20
1147608.00
  0
VERTEX
  8
RIVER_STREAM_SINGLE_LINE
 10
508184.00
 20
1147615.00
  0
VERTEX
  8
RIVER_STREAM_SINGLE_LINE
 10
508183.00
 20
1147618.00
  0
SEQEND
  8
RIVER_STREAM_SINGLE_LINE
  0
POLYLINE
  8
RIVER_STREAM_SINGLE_LINE
 66
     1
 62
     5
  6
CONTINUOUS
  0
VERTEX
  8
RIVER_STREAM_SINGLE_LINE
 10
508641.00
 20
1147609.00
  0
VERTEX
  8
RIVER_STREAM_SINGLE_LINE
 10
508665.00
 20
1147596.00
  0
VERTEX
  8
RIVER_STREAM_SINGLE_LINE
 10
508702.00
 20
1147572.00
  0
VERTEX
  8
RIVER_STREAM_SINGLE_LINE
 10
508737.00
 20
1147544.00
  0
VERTEX
  8
RIVER_STREAM_SINGLE_LINE
 10
508761.00
 20
1147521.00
  0
VERTEX
  8
RIVER_STREAM_SINGLE_LINE
 10
508786.00
 20
1147494.00
  0
VERTEX
  8
RIVER_STREAM_SINGLE_LINE
 10
508803.00
 20
1147477.00
  0
VERTEX
  8
RIVER_STREAM_SINGLE_LINE
 10
508817.00
 20
1147463.00
  0
VERTEX
  8
RIVER_STREAM_SINGLE_LINE
 10
508829.00
 20
1147441.00
  0
VERTEX
  8
RIVER_STREAM_SINGLE_LINE
 10
508831.00
 20
1147438.00
  0
SEQEND
  8
RIVER_STREAM_SINGLE_LINE
  0
POLYLINE
  8
RIVER_STREAM_SINGLE_LINE
 66
     1
 62
     5
  6
CONTINUOUS
  0
VERTEX
  8
RIVER_STREAM_SINGLE_LINE
 10
504913.00
 20
1147598.00
  0
VERTEX
  8
RIVER_STREAM_SINGLE_LINE
 10
504905.00
 20
1147594.00
  0
VERTEX
  8
RIVER_STREAM_SINGLE_LINE
 10
504897.00
 20
1147589.00
  0
VERTEX
  8
RIVER_STREAM_SINGLE_LINE
 10
504893.00
 20
1147584.00
  0
VERTEX
  8
RIVER_STREAM_SINGLE_LINE
 10
504888.00
 20
1147578.00
  0
VERTEX
  8
RIVER_STREAM_SINGLE_LINE
 10
504885.00
 20
1147574.00
  0
VERTEX
  8
RIVER_STREAM_SINGLE_LINE
 10
504882.00
 20
1147570.00
  0
VERTEX
  8
RIVER_STREAM_SINGLE_LINE
 10
504879.00
 20
1147564.00
  0
VERTEX
  8
RIVER_STREAM_SINGLE_LINE
 10
504874.00
 20
1147559.00
  0
VERTEX
  8
RIVER_STREAM_SINGLE_LINE
 10
504869.00
 20
1147554.00
  0
VERTEX
  8
RIVER_STREAM_SINGLE_LINE
 10
504861.00
 20
1147549.00
  0
VERTEX
  8
RIVER_STREAM_SINGLE_LINE
 10
504855.00
 20
1147544.00
  0
VERTEX
  8
RIVER_STREAM_SINGLE_LINE
 10
504847.00
 20
1147540.00
  0
VERTEX
  8
RIVER_STREAM_SINGLE_LINE
 10
504844.00
 20
1147537.00
  0
VERTEX
  8
RIVER_STREAM_SINGLE_LINE
 10
504839.00
 20
1147536.00
  0
VERTEX
  8
RIVER_STREAM_SINGLE_LINE
 10
504837.00
 20
1147533.00
  0
VERTEX
  8
RIVER_STREAM_SINGLE_LINE
 10
504835.00
 20
1147530.00
  0
VERTEX
  8
RIVER_STREAM_SINGLE_LINE
 10
504832.00
 20
1147526.00
  0
VERTEX
  8
RIVER_STREAM_SINGLE_LINE
 10
504831.00
 20
1147523.00
  0
VERTEX
  8
RIVER_STREAM_SINGLE_LINE
 10
504833.00
 20
1147519.00
  0
VERTEX
  8
RIVER_STREAM_SINGLE_LINE
 10
504834.00
 20
1147516.00
  0
VERTEX
  8
RIVER_STREAM_SINGLE_LINE
 10
504836.00
 20
1147513.00
  0
VERTEX
  8
RIVER_STREAM_SINGLE_LINE
 10
504838.00
 20
1147511.00
  0
VERTEX
  8
RIVER_STREAM_SINGLE_LINE
 10
504838.00
 20
1147508.00
  0
VERTEX
  8
RIVER_STREAM_SINGLE_LINE
 10
504834.00
 20
1147506.00
  0
VERTEX
  8
RIVER_STREAM_SINGLE_LINE
 10
504831.00
 20
1147503.00
  0
VERTEX
  8
RIVER_STREAM_SINGLE_LINE
 10
504827.00
 20
1147500.00
  0
VERTEX
  8
RIVER_STREAM_SINGLE_LINE
 10
504822.00
 20
1147498.00
  0
VERTEX
  8
RIVER_STREAM_SINGLE_LINE
 10
504820.00
 20
1147496.00
  0
VERTEX
  8
RIVER_STREAM_SINGLE_LINE
 10
504821.00
 20
1147494.00
  0
VERTEX
  8
RIVER_STREAM_SINGLE_LINE
 10
504823.00
 20
1147490.00
  0
VERTEX
  8
RIVER_STREAM_SINGLE_LINE
 10
504825.00
 20
1147486.00
  0
VERTEX
  8
RIVER_STREAM_SINGLE_LINE
 10
504828.00
 20
1147484.00
  0
VERTEX
  8
RIVER_STREAM_SINGLE_LINE
 10
504830.00
 20
1147481.00
  0
VERTEX
  8
RIVER_STREAM_SINGLE_LINE
 10
504831.00
 20
1147478.00
  0
VERTEX
  8
RIVER_STREAM_SINGLE_LINE
 10
504832.00
 20
1147475.00
  0
VERTEX
  8
RIVER_STREAM_SINGLE_LINE
 10
504831.00
 20
1147473.00
  0
VERTEX
  8
RIVER_STREAM_SINGLE_LINE
 10
504827.00
 20
1147471.00
  0
VERTEX
  8
RIVER_STREAM_SINGLE_LINE
 10
504822.00
 20
1147468.00
  0
VERTEX
  8
RIVER_STREAM_SINGLE_LINE
 10
504819.00
 20
1147466.00
  0
VERTEX
  8
RIVER_STREAM_SINGLE_LINE
 10
504816.00
 20
1147463.00
  0
VERTEX
  8
RIVER_STREAM_SINGLE_LINE
 10
504815.00
 20
1147459.00
  0
VERTEX
  8
RIVER_STREAM_SINGLE_LINE
 10
504813.00
 20
1147452.00
  0
VERTEX
  8
RIVER_STREAM_SINGLE_LINE
 10
504811.00
 20
1147446.00
  0
VERTEX
  8
RIVER_STREAM_SINGLE_LINE
 10
504810.00
 20
1147437.00
  0
VERTEX
  8
RIVER_STREAM_SINGLE_LINE
 10
504810.00
 20
1147427.00
  0
SEQEND
  8
RIVER_STREAM_SINGLE_LINE
  0
POLYLINE
  8
VIRTUAL_SEGMENT_STREAM
 66
     1
 62
     2
  6
CONTINUOUS
  0
VERTEX
  8
VIRTUAL_SEGMENT_STREAM
 10
508831.00
 20
1147438.00
  0
VERTEX
  8
VIRTUAL_SEGMENT_STREAM
 10
508835.00
 20
1147425.00
  0
SEQEND
  8
VIRTUAL_SEGMENT_STREAM
  0
POLYLINE
  8
RIVER_STREAM_SINGLE_LINE
 66
     1
 62
     5
  6
CONTINUOUS
  0
VERTEX
  8
RIVER_STREAM_SINGLE_LINE
 10
508835.00
 20
1147425.00
  0
VERTEX
  8
RIVER_STREAM_SINGLE_LINE
 10
508837.00
 20
1147421.00
  0
VERTEX
  8
RIVER_STREAM_SINGLE_LINE
 10
508847.00
 20
1147395.00
  0
VERTEX
  8
RIVER_STREAM_SINGLE_LINE
 10
508852.00
 20
1147362.00
  0
VERTEX
  8
RIVER_STREAM_SINGLE_LINE
 10
508853.00
 20
1147335.00
  0
VERTEX
  8
RIVER_STREAM_SINGLE_LINE
 10
508855.00
 20
1147312.00
  0
VERTEX
  8
RIVER_STREAM_SINGLE_LINE
 10
508853.00
 20
1147285.00
  0
VERTEX
  8
RIVER_STREAM_SINGLE_LINE
 10
508855.00
 20
1147257.00
  0
VERTEX
  8
RIVER_STREAM_SINGLE_LINE
 10
508870.00
 20
1147224.00
  0
VERTEX
  8
RIVER_STREAM_SINGLE_LINE
 10
508886.00
 20
1147200.00
  0
VERTEX
  8
RIVER_STREAM_SINGLE_LINE
 10
508906.00
 20
1147179.00
  0
VERTEX
  8
RIVER_STREAM_SINGLE_LINE
 10
508925.00
 20
1147157.00
  0
VERTEX
  8
RIVER_STREAM_SINGLE_LINE
 10
508942.00
 20
1147138.00
  0
SEQEND
  8
RIVER_STREAM_SINGLE_LINE
  0
POLYLINE
  8
BEAVER_DAM
 66
     1
 62
     2
  6
CONTINUOUS
  0
VERTEX
  8
BEAVER_DAM
 10
509000.00
 20
1147090.00
  0
VERTEX
  8
BEAVER_DAM
 10
509010.00
 20
1147102.00
  0
SEQEND
  8
BEAVER_DAM
  0
POLYLINE
  8
BEAVER_DAM
 66
     1
 62
     2
  6
CONTINUOUS
  0
VERTEX
  8
BEAVER_DAM
 10
508950.00
 20
1147066.00
  0
VERTEX
  8
BEAVER_DAM
 10
508957.00
 20
1147066.00
  0
SEQEND
  8
BEAVER_DAM
  0
POLYLINE
  8
BEAVER_DAM
 66
     1
 62
     2
  6
CONTINUOUS
  0
VERTEX
  8
BEAVER_DAM
 10
508982.00
 20
1147066.00
  0
VERTEX
  8
BEAVER_DAM
 10
509000.00
 20
1147090.00
  0
SEQEND
  8
BEAVER_DAM
  0
POLYLINE
  8
BEAVER_DAM
 66
     1
 62
     2
  6
CONTINUOUS
  0
VERTEX
  8
BEAVER_DAM
 10
508957.00
 20
1147066.00
  0
VERTEX
  8
BEAVER_DAM
 10
508982.00
 20
1147066.00
  0
SEQEND
  8
BEAVER_DAM
  0
POLYLINE
  8
RIVER_STREAM_SINGLE_LINE
 66
     1
 62
     5
  6
CONTINUOUS
  0
VERTEX
  8
RIVER_STREAM_SINGLE_LINE
 10
508419.00
 20
1146815.00
  0
VERTEX
  8
RIVER_STREAM_SINGLE_LINE
 10
508411.00
 20
1146825.00
  0
VERTEX
  8
RIVER_STREAM_SINGLE_LINE
 10
508409.00
 20
1146839.00
  0
VERTEX
  8
RIVER_STREAM_SINGLE_LINE
 10
508411.00
 20
1146855.00
  0
VERTEX
  8
RIVER_STREAM_SINGLE_LINE
 10
508420.00
 20
1146877.00
  0
VERTEX
  8
RIVER_STREAM_SINGLE_LINE
 10
508431.00
 20
1146908.00
  0
VERTEX
  8
RIVER_STREAM_SINGLE_LINE
 10
508446.00
 20
1146931.00
  0
VERTEX
  8
RIVER_STREAM_SINGLE_LINE
 10
508458.00
 20
1146949.00
  0
VERTEX
  8
RIVER_STREAM_SINGLE_LINE
 10
508467.00
 20
1146978.00
  0
VERTEX
  8
RIVER_STREAM_SINGLE_LINE
 10
508476.00
 20
1147007.00
  0
VERTEX
  8
RIVER_STREAM_SINGLE_LINE
 10
508489.00
 20
1147041.00
  0
VERTEX
  8
RIVER_STREAM_SINGLE_LINE
 10
508496.00
 20
1147070.00
  0
VERTEX
  8
RIVER_STREAM_SINGLE_LINE
 10
508500.00
 20
1147100.00
  0
VERTEX
  8
RIVER_STREAM_SINGLE_LINE
 10
508502.00
 20
1147131.00
  0
VERTEX
  8
RIVER_STREAM_SINGLE_LINE
 10
508500.00
 20
1147164.00
  0
VERTEX
  8
RIVER_STREAM_SINGLE_LINE
 10
508494.00
 20
1147193.00
  0
VERTEX
  8
RIVER_STREAM_SINGLE_LINE
 10
508487.00
 20
1147220.00
  0
VERTEX
  8
RIVER_STREAM_SINGLE_LINE
 10
508480.00
 20
1147244.00
  0
VERTEX
  8
RIVER_STREAM_SINGLE_LINE
 10
508472.00
 20
1147262.00
  0
VERTEX
  8
RIVER_STREAM_SINGLE_LINE
 10
508461.00
 20
1147280.00
  0
VERTEX
  8
RIVER_STREAM_SINGLE_LINE
 10
508447.00
 20
1147297.00
  0
VERTEX
  8
RIVER_STREAM_SINGLE_LINE
 10
508427.00
 20
1147315.00
  0
VERTEX
  8
RIVER_STREAM_SINGLE_LINE
 10
508414.00
 20
1147335.00
  0
VERTEX
  8
RIVER_STREAM_SINGLE_LINE
 10
508395.00
 20
1147362.00
  0
VERTEX
  8
RIVER_STREAM_SINGLE_LINE
 10
508382.00
 20
1147385.00
  0
VERTEX
  8
RIVER_STREAM_SINGLE_LINE
 10
508375.00
 20
1147405.00
  0
VERTEX
  8
RIVER_STREAM_SINGLE_LINE
 10
508374.00
 20
1147425.00
  0
VERTEX
  8
RIVER_STREAM_SINGLE_LINE
 10
508376.00
 20
1147446.00
  0
VERTEX
  8
RIVER_STREAM_SINGLE_LINE
 10
508382.00
 20
1147465.00
  0
VERTEX
  8
RIVER_STREAM_SINGLE_LINE
 10
508396.00
 20
1147480.00
  0
VERTEX
  8
RIVER_STREAM_SINGLE_LINE
 10
508413.00
 20
1147492.00
  0
VERTEX
  8
RIVER_STREAM_SINGLE_LINE
 10
508430.00
 20
1147506.00
  0
SEQEND
  8
RIVER_STREAM_SINGLE_LINE
  0
POLYLINE
  8
VIRTUAL_SEGMENT_STREAM
 66
     1
 62
     2
  6
CONTINUOUS
  0
VERTEX
  8
VIRTUAL_SEGMENT_STREAM
 10
508419.00
 20
1146815.00
  0
VERTEX
  8
VIRTUAL_SEGMENT_STREAM
 10
508429.00
 20
1146804.00
  0
SEQEND
  8
VIRTUAL_SEGMENT_STREAM
  0
POLYLINE
  8
RIVER_STREAM_SINGLE_LINE
 66
     1
 62
     5
  6
CONTINUOUS
  0
VERTEX
  8
RIVER_STREAM_SINGLE_LINE
 10
508434.00
 20
1146797.00
  0
VERTEX
  8
RIVER_STREAM_SINGLE_LINE
 10
508430.00
 20
1146802.00
  0
VERTEX
  8
RIVER_STREAM_SINGLE_LINE
 10
508429.00
 20
1146804.00
  0
SEQEND
  8
RIVER_STREAM_SINGLE_LINE
  0
POLYLINE
  8
RIVER_STREAM_SINGLE_LINE
 66
     1
 62
     5
  6
CONTINUOUS
  0
VERTEX
  8
RIVER_STREAM_SINGLE_LINE
 10
508402.00
 20
1146701.00
  0
VERTEX
  8
RIVER_STREAM_SINGLE_LINE
 10
508416.00
 20
1146719.00
  0
VERTEX
  8
RIVER_STREAM_SINGLE_LINE
 10
508427.00
 20
1146737.00
  0
VERTEX
  8
RIVER_STREAM_SINGLE_LINE
 10
508435.00
 20
1146756.00
  0
VERTEX
  8
RIVER_STREAM_SINGLE_LINE
 10
508440.00
 20
1146776.00
  0
VERTEX
  8
RIVER_STREAM_SINGLE_LINE
 10
508438.00
 20
1146792.00
  0
VERTEX
  8
RIVER_STREAM_SINGLE_LINE
 10
508434.00
 20
1146797.00
  0
SEQEND
  8
RIVER_STREAM_SINGLE_LINE
  0
POLYLINE
  8
RIVER_STREAM_SINGLE_LINE
 66
     1
 62
     5
  6
CONTINUOUS
  0
VERTEX
  8
RIVER_STREAM_SINGLE_LINE
 10
509772.00
 20
1146575.00
  0
VERTEX
  8
RIVER_STREAM_SINGLE_LINE
 10
509784.00
 20
1146580.00
  0
VERTEX
  8
RIVER_STREAM_SINGLE_LINE
 10
509806.00
 20
1146575.00
  0
VERTEX
  8
RIVER_STREAM_SINGLE_LINE
 10
509835.00
 20
1146574.00
  0
VERTEX
  8
RIVER_STREAM_SINGLE_LINE
 10
509855.00
 20
1146577.00
  0
VERTEX
  8
RIVER_STREAM_SINGLE_LINE
 10
509882.00
 20
1146583.00
  0
VERTEX
  8
RIVER_STREAM_SINGLE_LINE
 10
509911.00
 20
1146583.00
  0
VERTEX
  8
RIVER_STREAM_SINGLE_LINE
 10
509943.00
 20
1146582.00
  0
VERTEX
  8
RIVER_STREAM_SINGLE_LINE
 10
509960.00
 20
1146583.00
  0
VERTEX
  8
RIVER_STREAM_SINGLE_LINE
 10
509979.00
 20
1146592.00
  0
VERTEX
  8
RIVER_STREAM_SINGLE_LINE
 10
510000.00
 20
1146598.00
  0
SEQEND
  8
RIVER_STREAM_SINGLE_LINE
  0
POLYLINE
  8
RIVER_STREAM_SINGLE_LINE
 66
     1
 62
     5
  6
CONTINUOUS
  0
VERTEX
  8
RIVER_STREAM_SINGLE_LINE
 10
508982.00
 20
1147066.00
  0
VERTEX
  8
RIVER_STREAM_SINGLE_LINE
 10
508986.00
 20
1147051.00
  0
VERTEX
  8
RIVER_STREAM_SINGLE_LINE
 10
508990.00
 20
1147041.00
  0
VERTEX
  8
RIVER_STREAM_SINGLE_LINE
 10
508996.00
 20
1147015.00
  0
VERTEX
  8
RIVER_STREAM_SINGLE_LINE
 10
509012.00
 20
1146994.00
  0
VERTEX
  8
RIVER_STREAM_SINGLE_LINE
 10
509026.00
 20
1146979.00
  0
VERTEX
  8
RIVER_STREAM_SINGLE_LINE
 10
509039.00
 20
1146973.00
  0
VERTEX
  8
RIVER_STREAM_SINGLE_LINE
 10
509064.00
 20
1146972.00
  0
VERTEX
  8
RIVER_STREAM_SINGLE_LINE
 10
509081.00
 20
1146964.00
  0
VERTEX
  8
RIVER_STREAM_SINGLE_LINE
 10
509094.00
 20
1146955.00
  0
VERTEX
  8
RIVER_STREAM_SINGLE_LINE
 10
509097.00
 20
1146946.00
  0
VERTEX
  8
RIVER_STREAM_SINGLE_LINE
 10
509095.00
 20
1146929.00
  0
VERTEX
  8
RIVER_STREAM_SINGLE_LINE
 10
509100.00
 20
1146912.00
  0
VERTEX
  8
RIVER_STREAM_SINGLE_LINE
 10
509123.00
 20
1146884.00
  0
VERTEX
  8
RIVER_STREAM_SINGLE_LINE
 10
509148.00
 20
1146859.00
  0
VERTEX
  8
RIVER_STREAM_SINGLE_LINE
 10
509166.00
 20
1146838.00
  0
VERTEX
  8
RIVER_STREAM_SINGLE_LINE
 10
509181.00
 20
1146811.00
  0
VERTEX
  8
RIVER_STREAM_SINGLE_LINE
 10
509192.00
 20
1146784.00
  0
VERTEX
  8
RIVER_STREAM_SINGLE_LINE
 10
509203.00
 20
1146762.00
  0
VERTEX
  8
RIVER_STREAM_SINGLE_LINE
 10
509211.00
 20
1146729.00
  0
VERTEX
  8
RIVER_STREAM_SINGLE_LINE
 10
509216.00
 20
1146702.00
  0
VERTEX
  8
RIVER_STREAM_SINGLE_LINE
 10
509221.00
 20
1146682.00
  0
VERTEX
  8
RIVER_STREAM_SINGLE_LINE
 10
509222.00
 20
1146660.00
  0
VERTEX
  8
RIVER_STREAM_SINGLE_LINE
 10
509216.00
 20
1146639.00
  0
VERTEX
  8
RIVER_STREAM_SINGLE_LINE
 10
509212.00
 20
1146626.00
  0
VERTEX
  8
RIVER_STREAM_SINGLE_LINE
 10
509204.00
 20
1146617.00
  0
VERTEX
  8
RIVER_STREAM_SINGLE_LINE
 10
509197.00
 20
1146606.00
  0
VERTEX
  8
RIVER_STREAM_SINGLE_LINE
 10
509194.00
 20
1146599.00
  0
VERTEX
  8
RIVER_STREAM_SINGLE_LINE
 10
509193.00
 20
1146579.00
  0
VERTEX
  8
RIVER_STREAM_SINGLE_LINE
 10
509193.00
 20
1146554.00
  0
VERTEX
  8
RIVER_STREAM_SINGLE_LINE
 10
509196.00
 20
1146538.00
  0
SEQEND
  8
RIVER_STREAM_SINGLE_LINE
  0
POLYLINE
  8
RIVER_STREAM_SINGLE_LINE
 66
     1
 62
     5
  6
CONTINUOUS
  0
VERTEX
  8
RIVER_STREAM_SINGLE_LINE
 10
509707.00
 20
1146514.00
  0
VERTEX
  8
RIVER_STREAM_SINGLE_LINE
 10
509722.00
 20
1146529.00
  0
VERTEX
  8
RIVER_STREAM_SINGLE_LINE
 10
509740.00
 20
1146531.00
  0
VERTEX
  8
RIVER_STREAM_SINGLE_LINE
 10
509753.00
 20
1146535.00
  0
VERTEX
  8
RIVER_STREAM_SINGLE_LINE
 10
509762.00
 20
1146546.00
  0
VERTEX
  8
RIVER_STREAM_SINGLE_LINE
 10
509768.00
 20
1146565.00
  0
VERTEX
  8
RIVER_STREAM_SINGLE_LINE
 10
509772.00
 20
1146575.00
  0
SEQEND
  8
RIVER_STREAM_SINGLE_LINE
  0
POLYLINE
  8
RIVER_STREAM_SINGLE_LINE
 66
     1
 62
     5
  6
CONTINUOUS
  0
VERTEX
  8
RIVER_STREAM_SINGLE_LINE
 10
509196.00
 20
1146538.00
  0
VERTEX
  8
RIVER_STREAM_SINGLE_LINE
 10
509197.00
 20
1146532.00
  0
VERTEX
  8
RIVER_STREAM_SINGLE_LINE
 10
509206.00
 20
1146515.00
  0
VERTEX
  8
RIVER_STREAM_SINGLE_LINE
 10
509221.00
 20
1146503.00
  0
VERTEX
  8
RIVER_STREAM_SINGLE_LINE
 10
509236.00
 20
1146497.00
  0
SEQEND
  8
RIVER_STREAM_SINGLE_LINE
  0
POLYLINE
  8
VIRTUAL_SEGMENT_STREAM
 66
     1
 62
     2
  6
CONTINUOUS
  0
VERTEX
  8
VIRTUAL_SEGMENT_STREAM
 10
500272.00
 20
1146344.00
  0
VERTEX
  8
VIRTUAL_SEGMENT_STREAM
 10
500294.00
 20
1146343.00
  0
SEQEND
  8
VIRTUAL_SEGMENT_STREAM
  0
POLYLINE
  8
RIVER_STREAM_SINGLE_LINE
 66
     1
 62
     5
  6
CONTINUOUS
  0
VERTEX
  8
RIVER_STREAM_SINGLE_LINE
 10
500168.00
 20
1146315.00
  0
VERTEX
  8
RIVER_STREAM_SINGLE_LINE
 10
500190.00
 20
1146325.00
  0
VERTEX
  8
RIVER_STREAM_SINGLE_LINE
 10
500195.00
 20
1146344.00
  0
VERTEX
  8
RIVER_STREAM_SINGLE_LINE
 10
500210.00
 20
1146349.00
  0
VERTEX
  8
RIVER_STREAM_SINGLE_LINE
 10
500242.00
 20
1146349.00
  0
VERTEX
  8
RIVER_STREAM_SINGLE_LINE
 10
500256.00
 20
1146353.00
  0
VERTEX
  8
RIVER_STREAM_SINGLE_LINE
 10
500272.00
 20
1146344.00
  0
SEQEND
  8
RIVER_STREAM_SINGLE_LINE
  0
POLYLINE
  8
BEAVER_DAM
 66
     1
 62
     2
  6
CONTINUOUS
  0
VERTEX
  8
BEAVER_DAM
 10
509277.00
 20
1146038.00
  0
VERTEX
  8
BEAVER_DAM
 10
509286.00
 20
1146033.00
  0
SEQEND
  8
BEAVER_DAM
  0
POLYLINE
  8
RIVER_STREAM_SINGLE_LINE
 66
     1
 62
     5
  6
CONTINUOUS
  0
VERTEX
  8
RIVER_STREAM_SINGLE_LINE
 10
505741.00
 20
1146091.00
  0
VERTEX
  8
RIVER_STREAM_SINGLE_LINE
 10
505740.00
 20
1146076.00
  0
VERTEX
  8
RIVER_STREAM_SINGLE_LINE
 10
505742.00
 20
1146064.00
  0
VERTEX
  8
RIVER_STREAM_SINGLE_LINE
 10
505743.00
 20
1146050.00
  0
VERTEX
  8
RIVER_STREAM_SINGLE_LINE
 10
505734.00
 20
1146040.00
  0
VERTEX
  8
RIVER_STREAM_SINGLE_LINE
 10
505729.00
 20
1146025.00
  0
VERTEX
  8
RIVER_STREAM_SINGLE_LINE
 10
505733.00
 20
1145993.00
  0
VERTEX
  8
RIVER_STREAM_SINGLE_LINE
 10
505744.00
 20
1145965.00
  0
VERTEX
  8
RIVER_STREAM_SINGLE_LINE
 10
505756.00
 20
1145937.00
  0
VERTEX
  8
RIVER_STREAM_SINGLE_LINE
 10
505773.00
 20
1145913.00
  0
VERTEX
  8
RIVER_STREAM_SINGLE_LINE
 10
505790.00
 20
1145897.00
  0
SEQEND
  8
RIVER_STREAM_SINGLE_LINE
  0
POLYLINE
  8
RIVER_STREAM_SINGLE_LINE
 66
     1
 62
     5
  6
CONTINUOUS
  0
VERTEX
  8
RIVER_STREAM_SINGLE_LINE
 10
505790.00
 20
1145897.00
  0
VERTEX
  8
RIVER_STREAM_SINGLE_LINE
 10
505797.00
 20
1145892.00
  0
SEQEND
  8
RIVER_STREAM_SINGLE_LINE
  0
POLYLINE
  8
RIVER_STREAM_SINGLE_LINE
 66
     1
 62
     5
  6
CONTINUOUS
  0
VERTEX
  8
RIVER_STREAM_SINGLE_LINE
 10
500000.00
 20
1145907.00
  0
VERTEX
  8
RIVER_STREAM_SINGLE_LINE
 10
500014.00
 20
1145906.00
  0
VERTEX
  8
RIVER_STREAM_SINGLE_LINE
 10
500031.00
 20
1145891.00
  0
SEQEND
  8
RIVER_STREAM_SINGLE_LINE
  0
POLYLINE
  8
RIVER_STREAM_SINGLE_LINE
 66
     1
 62
     5
  6
CONTINUOUS
  0
VERTEX
  8
RIVER_STREAM_SINGLE_LINE
 10
508925.00
 20
1145831.00
  0
VERTEX
  8
RIVER_STREAM_SINGLE_LINE
 10
508930.00
 20
1145835.00
  0
SEQEND
  8
RIVER_STREAM_SINGLE_LINE
  0
POLYLINE
  8
BEAVER_DAM
 66
     1
 62
     2
  6
CONTINUOUS
  0
VERTEX
  8
BEAVER_DAM
 10
508766.00
 20
1145777.00
  0
VERTEX
  8
BEAVER_DAM
 10
508780.00
 20
1145774.00
  0
SEQEND
  8
BEAVER_DAM
  0
POLYLINE
  8
RIVER_STREAM_SINGLE_LINE
 66
     1
 62
     5
  6
CONTINUOUS
  0
VERTEX
  8
RIVER_STREAM_SINGLE_LINE
 10
508803.00
 20
1145763.00
  0
VERTEX
  8
RIVER_STREAM_SINGLE_LINE
 10
508809.00
 20
1145791.00
  0
VERTEX
  8
RIVER_STREAM_SINGLE_LINE
 10
508818.00
 20
1145816.00
  0
VERTEX
  8
RIVER_STREAM_SINGLE_LINE
 10
508827.00
 20
1145827.00
  0
VERTEX
  8
RIVER_STREAM_SINGLE_LINE
 10
508840.00
 20
1145832.00
  0
VERTEX
  8
RIVER_STREAM_SINGLE_LINE
 10
508856.00
 20
1145835.00
  0
VERTEX
  8
RIVER_STREAM_SINGLE_LINE
 10
508869.00
 20
1145833.00
  0
VERTEX
  8
RIVER_STREAM_SINGLE_LINE
 10
508892.00
 20
1145827.00
  0
VERTEX
  8
RIVER_STREAM_SINGLE_LINE
 10
508912.00
 20
1145827.00
  0
VERTEX
  8
RIVER_STREAM_SINGLE_LINE
 10
508925.00
 20
1145831.00
  0
SEQEND
  8
RIVER_STREAM_SINGLE_LINE
  0
POLYLINE
  8
BEAVER_DAM
 66
     1
 62
     2
  6
CONTINUOUS
  0
VERTEX
  8
BEAVER_DAM
 10
508780.00
 20
1145774.00
  0
VERTEX
  8
BEAVER_DAM
 10
508790.00
 20
1145766.00
  0
VERTEX
  8
BEAVER_DAM
 10
508803.00
 20
1145763.00
  0
SEQEND
  8
BEAVER_DAM
  0
POLYLINE
  8
RIVER_STREAM_SINGLE_LINE
 66
     1
 62
     5
  6
CONTINUOUS
  0
VERTEX
  8
RIVER_STREAM_SINGLE_LINE
 10
508684.00
 20
1145761.00
  0
VERTEX
  8
RIVER_STREAM_SINGLE_LINE
 10
508701.00
 20
1145768.00
  0
VERTEX
  8
RIVER_STREAM_SINGLE_LINE
 10
508726.00
 20
1145773.00
  0
VERTEX
  8
RIVER_STREAM_SINGLE_LINE
 10
508740.00
 20
1145775.00
  0
VERTEX
  8
RIVER_STREAM_SINGLE_LINE
 10
508752.00
 20
1145772.00
  0
VERTEX
  8
RIVER_STREAM_SINGLE_LINE
 10
508772.00
 20
1145769.00
  0
VERTEX
  8
RIVER_STREAM_SINGLE_LINE
 10
508780.00
 20
1145774.00
  0
SEQEND
  8
RIVER_STREAM_SINGLE_LINE
  0
POLYLINE
  8
BEAVER_DAM
 66
     1
 62
     2
  6
CONTINUOUS
  0
VERTEX
  8
BEAVER_DAM
 10
508803.00
 20
1145763.00
  0
VERTEX
  8
BEAVER_DAM
 10
508806.00
 20
1145750.00
  0
SEQEND
  8
BEAVER_DAM
  0
POLYLINE
  8
BEAVER_DAM
 66
     1
 62
     2
  6
CONTINUOUS
  0
VERTEX
  8
BEAVER_DAM
 10
508806.00
 20
1145750.00
  0
VERTEX
  8
BEAVER_DAM
 10
508826.00
 20
1145746.00
  0
SEQEND
  8
BEAVER_DAM
  0
POLYLINE
  8
RIVER_STREAM_SINGLE_LINE
 66
     1
 62
     5
  6
CONTINUOUS
  0
VERTEX
  8
RIVER_STREAM_SINGLE_LINE
 10
506721.00
 20
1146267.00
  0
VERTEX
  8
RIVER_STREAM_SINGLE_LINE
 10
506708.00
 20
1146240.00
  0
VERTEX
  8
RIVER_STREAM_SINGLE_LINE
 10
506690.00
 20
1146212.00
  0
VERTEX
  8
RIVER_STREAM_SINGLE_LINE
 10
506677.00
 20
1146186.00
  0
VERTEX
  8
RIVER_STREAM_SINGLE_LINE
 10
506665.00
 20
1146168.00
  0
VERTEX
  8
RIVER_STREAM_SINGLE_LINE
 10
506659.00
 20
1146142.00
  0
VERTEX
  8
RIVER_STREAM_SINGLE_LINE
 10
506654.00
 20
1146111.00
  0
VERTEX
  8
RIVER_STREAM_SINGLE_LINE
 10
506660.00
 20
1146090.00
  0
VERTEX
  8
RIVER_STREAM_SINGLE_LINE
 10
506675.00
 20
1146069.00
  0
VERTEX
  8
RIVER_STREAM_SINGLE_LINE
 10
506692.00
 20
1146056.00
  0
VERTEX
  8
RIVER_STREAM_SINGLE_LINE
 10
506716.00
 20
1146046.00
  0
VERTEX
  8
RIVER_STREAM_SINGLE_LINE
 10
506742.00
 20
1146045.00
  0
VERTEX
  8
RIVER_STREAM_SINGLE_LINE
 10
506785.00
 20
1146046.00
  0
VERTEX
  8
RIVER_STREAM_SINGLE_LINE
 10
506824.00
 20
1146042.00
  0
VERTEX
  8
RIVER_STREAM_SINGLE_LINE
 10
506855.00
 20
1146040.00
  0
VERTEX
  8
RIVER_STREAM_SINGLE_LINE
 10
506869.00
 20
1146043.00
  0
VERTEX
  8
RIVER_STREAM_SINGLE_LINE
 10
506892.00
 20
1146054.00
  0
VERTEX
  8
RIVER_STREAM_SINGLE_LINE
 10
506915.00
 20
1146054.00
  0
VERTEX
  8
RIVER_STREAM_SINGLE_LINE
 10
506935.00
 20
1146051.00
  0
VERTEX
  8
RIVER_STREAM_SINGLE_LINE
 10
506965.00
 20
1146040.00
  0
VERTEX
  8
RIVER_STREAM_SINGLE_LINE
 10
507002.00
 20
1146027.00
  0
VERTEX
  8
RIVER_STREAM_SINGLE_LINE
 10
507033.00
 20
1146017.00
  0
VERTEX
  8
RIVER_STREAM_SINGLE_LINE
 10
507060.00
 20
1146006.00
  0
VERTEX
  8
RIVER_STREAM_SINGLE_LINE
 10
507083.00
 20
1146000.00
  0
VERTEX
  8
RIVER_STREAM_SINGLE_LINE
 10
507106.00
 20
1145994.00
  0
VERTEX
  8
RIVER_STREAM_SINGLE_LINE
 10
507131.00
 20
1145991.00
  0
VERTEX
  8
RIVER_STREAM_SINGLE_LINE
 10
507146.00
 20
1145989.00
  0
VERTEX
  8
RIVER_STREAM_SINGLE_LINE
 10
507156.00
 20
1145983.00
  0
VERTEX
  8
RIVER_STREAM_SINGLE_LINE
 10
507166.00
 20
1145966.00
  0
VERTEX
  8
RIVER_STREAM_SINGLE_LINE
 10
507170.00
 20
1145943.00
  0
VERTEX
  8
RIVER_STREAM_SINGLE_LINE
 10
507164.00
 20
1145918.00
  0
VERTEX
  8
RIVER_STREAM_SINGLE_LINE
 10
507159.00
 20
1145879.00
  0
VERTEX
  8
RIVER_STREAM_SINGLE_LINE
 10
507160.00
 20
1145854.00
  0
VERTEX
  8
RIVER_STREAM_SINGLE_LINE
 10
507167.00
 20
1145826.00
  0
VERTEX
  8
RIVER_STREAM_SINGLE_LINE
 10
507178.00
 20
1145814.00
  0
VERTEX
  8
RIVER_STREAM_SINGLE_LINE
 10
507200.00
 20
1145801.00
  0
VERTEX
  8
RIVER_STREAM_SINGLE_LINE
 10
507231.00
 20
1145788.00
  0
VERTEX
  8
RIVER_STREAM_SINGLE_LINE
 10
507265.00
 20
1145779.00
  0
VERTEX
  8
RIVER_STREAM_SINGLE_LINE
 10
507279.00
 20
1145773.00
  0
VERTEX
  8
RIVER_STREAM_SINGLE_LINE
 10
507292.00
 20
1145755.00
  0
VERTEX
  8
RIVER_STREAM_SINGLE_LINE
 10
507298.00
 20
1145738.00
  0
VERTEX
  8
RIVER_STREAM_SINGLE_LINE
 10
507304.00
 20
1145705.00
  0
SEQEND
  8
RIVER_STREAM_SINGLE_LINE
  0
POLYLINE
  8
VIRTUAL_SEGMENT_STREAM
 66
     1
 62
     2
  6
CONTINUOUS
  0
VERTEX
  8
VIRTUAL_SEGMENT_STREAM
 10
503538.00
 20
1145666.00
  0
VERTEX
  8
VIRTUAL_SEGMENT_STREAM
 10
503575.00
 20
1145664.00
  0
SEQEND
  8
VIRTUAL_SEGMENT_STREAM
  0
POLYLINE
  8
RIVER_STREAM_SINGLE_LINE
 66
     1
 62
     5
  6
CONTINUOUS
  0
VERTEX
  8
RIVER_STREAM_SINGLE_LINE
 10
503575.00
 20
1145664.00
  0
VERTEX
  8
RIVER_STREAM_SINGLE_LINE
 10
503595.00
 20
1145654.00
  0
VERTEX
  8
RIVER_STREAM_SINGLE_LINE
 10
503610.00
 20
1145643.00
  0
VERTEX
  8
RIVER_STREAM_SINGLE_LINE
 10
503619.00
 20
1145628.00
  0
VERTEX
  8
RIVER_STREAM_SINGLE_LINE
 10
503633.00
 20
1145616.00
  0
VERTEX
  8
RIVER_STREAM_SINGLE_LINE
 10
503656.00
 20
1145612.00
  0
SEQEND
  8
RIVER_STREAM_SINGLE_LINE
  0
POLYLINE
  8
BEAVER_DAM
 66
     1
 62
     2
  6
CONTINUOUS
  0
VERTEX
  8
BEAVER_DAM
 10
508449.00
 20
1145605.00
  0
VERTEX
  8
BEAVER_DAM
 10
508453.00
 20
1145597.00
  0
SEQEND
  8
BEAVER_DAM
  0
POLYLINE
  8
BEAVER_DAM
 66
     1
 62
     2
  6
CONTINUOUS
  0
VERTEX
  8
BEAVER_DAM
 10
508471.00
 20
1145570.00
  0
VERTEX
  8
BEAVER_DAM
 10
508475.00
 20
1145561.00
  0
SEQEND
  8
BEAVER_DAM
  0
POLYLINE
  8
RIVER_STREAM_SINGLE_LINE
 66
     1
 62
     5
  6
CONTINUOUS
  0
VERTEX
  8
RIVER_STREAM_SINGLE_LINE
 10
503439.00
 20
1145525.00
  0
VERTEX
  8
RIVER_STREAM_SINGLE_LINE
 10
503448.00
 20
1145546.00
  0
VERTEX
  8
RIVER_STREAM_SINGLE_LINE
 10
503470.00
 20
1145577.00
  0
VERTEX
  8
RIVER_STREAM_SINGLE_LINE
 10
503491.00
 20
1145607.00
  0
VERTEX
  8
RIVER_STREAM_SINGLE_LINE
 10
503507.00
 20
1145629.00
  0
VERTEX
  8
RIVER_STREAM_SINGLE_LINE
 10
503523.00
 20
1145648.00
  0
VERTEX
  8
RIVER_STREAM_SINGLE_LINE
 10
503538.00
 20
1145666.00
  0
SEQEND
  8
RIVER_STREAM_SINGLE_LINE
  0
POLYLINE
  8
BEAVER_DAM
 66
     1
 62
     2
  6
CONTINUOUS
  0
VERTEX
  8
BEAVER_DAM
 10
508355.00
 20
1145537.00
  0
VERTEX
  8
BEAVER_DAM
 10
508362.00
 20
1145522.00
  0
SEQEND
  8
BEAVER_DAM
  0
POLYLINE
  8
RIVER_STREAM_SINGLE_LINE
 66
     1
 62
     5
  6
CONTINUOUS
  0
VERTEX
  8
RIVER_STREAM_SINGLE_LINE
 10
508399.00
 20
1145489.00
  0
VERTEX
  8
RIVER_STREAM_SINGLE_LINE
 10
508415.00
 20
1145514.00
  0
SEQEND
  8
RIVER_STREAM_SINGLE_LINE
  0
POLYLINE
  8
BEAVER_DAM
 66
     1
 62
     2
  6
CONTINUOUS
  0
VERTEX
  8
BEAVER_DAM
 10
508362.00
 20
1145522.00
  0
VERTEX
  8
BEAVER_DAM
 10
508399.00
 20
1145489.00
  0
SEQEND
  8
BEAVER_DAM
  0
POLYLINE
  8
BEAVER_DAM
 66
     1
 62
     2
  6
CONTINUOUS
  0
VERTEX
  8
BEAVER_DAM
 10
508399.00
 20
1145489.00
  0
VERTEX
  8
BEAVER_DAM
 10
508421.00
 20
1145475.00
  0
SEQEND
  8
BEAVER_DAM
  0
POLYLINE
  8
BEAVER_DAM
 66
     1
 62
     2
  6
CONTINUOUS
  0
VERTEX
  8
BEAVER_DAM
 10
508421.00
 20
1145475.00
  0
VERTEX
  8
BEAVER_DAM
 10
508434.00
 20
1145469.00
  0
SEQEND
  8
BEAVER_DAM
  0
POLYLINE
  8
RIVER_STREAM_SINGLE_LINE
 66
     1
 62
     5
  6
CONTINUOUS
  0
VERTEX
  8
RIVER_STREAM_SINGLE_LINE
 10
503208.00
 20
1145463.00
  0
VERTEX
  8
RIVER_STREAM_SINGLE_LINE
 10
503217.00
 20
1145461.00
  0
SEQEND
  8
RIVER_STREAM_SINGLE_LINE
  0
POLYLINE
  8
VIRTUAL_SEGMENT_STREAM
 66
     1
 62
     2
  6
CONTINUOUS
  0
VERTEX
  8
VIRTUAL_SEGMENT_STREAM
 10
503217.00
 20
1145461.00
  0
VERTEX
  8
VIRTUAL_SEGMENT_STREAM
 10
503233.00
 20
1145461.00
  0
SEQEND
  8
VIRTUAL_SEGMENT_STREAM
  0
POLYLINE
  8
RIVER_STREAM_SINGLE_LINE
 66
     1
 62
     5
  6
CONTINUOUS
  0
VERTEX
  8
RIVER_STREAM_SINGLE_LINE
 10
503233.00
 20
1145461.00
  0
VERTEX
  8
RIVER_STREAM_SINGLE_LINE
 10
503260.00
 20
1145459.00
  0
VERTEX
  8
RIVER_STREAM_SINGLE_LINE
 10
503277.00
 20
1145450.00
  0
VERTEX
  8
RIVER_STREAM_SINGLE_LINE
 10
503301.00
 20
1145448.00
  0
VERTEX
  8
RIVER_STREAM_SINGLE_LINE
 10
503318.00
 20
1145450.00
  0
VERTEX
  8
RIVER_STREAM_SINGLE_LINE
 10
503323.00
 20
1145456.00
  0
SEQEND
  8
RIVER_STREAM_SINGLE_LINE
  0
POLYLINE
  8
RIVER_STREAM_SINGLE_LINE
 66
     1
 62
     5
  6
CONTINUOUS
  0
VERTEX
  8
RIVER_STREAM_SINGLE_LINE
 10
506288.00
 20
1145445.00
  0
VERTEX
  8
RIVER_STREAM_SINGLE_LINE
 10
506294.00
 20
1145438.00
  0
VERTEX
  8
RIVER_STREAM_SINGLE_LINE
 10
506316.00
 20
1145428.00
  0
VERTEX
  8
RIVER_STREAM_SINGLE_LINE
 10
506323.00
 20
1145424.00
  0
SEQEND
  8
RIVER_STREAM_SINGLE_LINE
  0
POLYLINE
  8
RIVER_STREAM_SINGLE_LINE
 66
     1
 62
     5
  6
CONTINUOUS
  0
VERTEX
  8
RIVER_STREAM_SINGLE_LINE
 10
506323.00
 20
1145424.00
  0
VERTEX
  8
RIVER_STREAM_SINGLE_LINE
 10
506337.00
 20
1145415.00
  0
SEQEND
  8
RIVER_STREAM_SINGLE_LINE
  0
POLYLINE
  8
BEAVER_DAM
 66
     1
 62
     2
  6
CONTINUOUS
  0
VERTEX
  8
BEAVER_DAM
 10
504445.00
 20
1145068.00
  0
VERTEX
  8
BEAVER_DAM
 10
504453.00
 20
1145058.00
  0
SEQEND
  8
BEAVER_DAM
  0
POLYLINE
  8
RIVER_STREAM_SINGLE_LINE
 66
     1
 62
     5
  6
CONTINUOUS
  0
VERTEX
  8
RIVER_STREAM_SINGLE_LINE
 10
506723.00
 20
1145050.00
  0
VERTEX
  8
RIVER_STREAM_SINGLE_LINE
 10
506746.00
 20
1145053.00
  0
VERTEX
  8
RIVER_STREAM_SINGLE_LINE
 10
506756.00
 20
1145055.00
  0
SEQEND
  8
RIVER_STREAM_SINGLE_LINE
  0
POLYLINE
  8
RIVER_STREAM_SINGLE_LINE
 66
     1
 62
     5
  6
CONTINUOUS
  0
VERTEX
  8
RIVER_STREAM_SINGLE_LINE
 10
506756.00
 20
1145055.00
  0
VERTEX
  8
RIVER_STREAM_SINGLE_LINE
 10
506775.00
 20
1145059.00
  0
VERTEX
  8
RIVER_STREAM_SINGLE_LINE
 10
506806.00
 20
1145065.00
  0
VERTEX
  8
RIVER_STREAM_SINGLE_LINE
 10
506835.00
 20
1145071.00
  0
VERTEX
  8
RIVER_STREAM_SINGLE_LINE
 10
506864.00
 20
1145072.00
  0
VERTEX
  8
RIVER_STREAM_SINGLE_LINE
 10
506901.00
 20
1145069.00
  0
VERTEX
  8
RIVER_STREAM_SINGLE_LINE
 10
506930.00
 20
1145067.00
  0
VERTEX
  8
RIVER_STREAM_SINGLE_LINE
 10
506943.00
 20
1145060.00
  0
VERTEX
  8
RIVER_STREAM_SINGLE_LINE
 10
506949.00
 20
1145053.00
  0
VERTEX
  8
RIVER_STREAM_SINGLE_LINE
 10
506952.00
 20
1145042.00
  0
SEQEND
  8
RIVER_STREAM_SINGLE_LINE
  0
POLYLINE
  8
RIVER_STREAM_SINGLE_LINE
 66
     1
 62
     5
  6
CONTINUOUS
  0
VERTEX
  8
RIVER_STREAM_SINGLE_LINE
 10
506952.00
 20
1145042.00
  0
VERTEX
  8
RIVER_STREAM_SINGLE_LINE
 10
506959.00
 20
1145036.00
  0
VERTEX
  8
RIVER_STREAM_SINGLE_LINE
 10
506972.00
 20
1145032.00
  0
VERTEX
  8
RIVER_STREAM_SINGLE_LINE
 10
506993.00
 20
1145036.00
  0
VERTEX
  8
RIVER_STREAM_SINGLE_LINE
 10
507008.00
 20
1145040.00
  0
SEQEND
  8
RIVER_STREAM_SINGLE_LINE
  0
POLYLINE
  8
BEAVER_DAM
 66
     1
 62
     2
  6
CONTINUOUS
  0
VERTEX
  8
BEAVER_DAM
 10
504453.00
 20
1145058.00
  0
VERTEX
  8
BEAVER_DAM
 10
504461.00
 20
1145040.00
  0
VERTEX
  8
BEAVER_DAM
 10
504460.00
 20
1145022.00
  0
SEQEND
  8
BEAVER_DAM
  0
POLYLINE
  8
RIVER_STREAM_SINGLE_LINE
 66
     1
 62
     5
  6
CONTINUOUS
  0
VERTEX
  8
RIVER_STREAM_SINGLE_LINE
 10
504412.00
 20
1145004.00
  0
VERTEX
  8
RIVER_STREAM_SINGLE_LINE
 10
504430.00
 20
1145012.00
  0
VERTEX
  8
RIVER_STREAM_SINGLE_LINE
 10
504460.00
 20
1145022.00
  0
SEQEND
  8
RIVER_STREAM_SINGLE_LINE
  0
POLYLINE
  8
BEAVER_DAM
 66
     1
 62
     2
  6
CONTINUOUS
  0
VERTEX
  8
BEAVER_DAM
 10
504460.00
 20
1145022.00
  0
VERTEX
  8
BEAVER_DAM
 10
504460.00
 20
1145006.00
  0
VERTEX
  8
BEAVER_DAM
 10
504476.00
 20
1144977.00
  0
SEQEND
  8
BEAVER_DAM
  0
POLYLINE
  8
BEAVER_DAM
 66
     1
 62
     2
  6
CONTINUOUS
  0
VERTEX
  8
BEAVER_DAM
 10
504476.00
 20
1144977.00
  0
VERTEX
  8
BEAVER_DAM
 10
504481.00
 20
1144968.00
  0
SEQEND
  8
BEAVER_DAM
  0
POLYLINE
  8
BEAVER_DAM
 66
     1
 62
     2
  6
CONTINUOUS
  0
VERTEX
  8
BEAVER_DAM
 10
505390.00
 20
1144772.00
  0
VERTEX
  8
BEAVER_DAM
 10
505397.00
 20
1144786.00
  0
SEQEND
  8
BEAVER_DAM
  0
POLYLINE
  8
BEAVER_DAM
 66
     1
 62
     2
  6
CONTINUOUS
  0
VERTEX
  8
BEAVER_DAM
 10
505366.00
 20
1144762.00
  0
VERTEX
  8
BEAVER_DAM
 10
505382.00
 20
1144763.00
  0
VERTEX
  8
BEAVER_DAM
 10
505390.00
 20
1144772.00
  0
SEQEND
  8
BEAVER_DAM
  0
POLYLINE
  8
BEAVER_DAM
 66
     1
 62
     2
  6
CONTINUOUS
  0
VERTEX
  8
BEAVER_DAM
 10
503243.00
 20
1144763.00
  0
VERTEX
  8
BEAVER_DAM
 10
503250.00
 20
1144760.00
  0
SEQEND
  8
BEAVER_DAM
  0
POLYLINE
  8
BEAVER_DAM
 66
     1
 62
     2
  6
CONTINUOUS
  0
VERTEX
  8
BEAVER_DAM
 10
505355.00
 20
1144760.00
  0
VERTEX
  8
BEAVER_DAM
 10
505366.00
 20
1144762.00
  0
SEQEND
  8
BEAVER_DAM
  0
POLYLINE
  8
BEAVER_DAM
 66
     1
 62
     2
  6
CONTINUOUS
  0
VERTEX
  8
BEAVER_DAM
 10
505435.00
 20
1144722.00
  0
VERTEX
  8
BEAVER_DAM
 10
505449.00
 20
1144726.00
  0
SEQEND
  8
BEAVER_DAM
  0
POLYLINE
  8
BEAVER_DAM
 66
     1
 62
     2
  6
CONTINUOUS
  0
VERTEX
  8
BEAVER_DAM
 10
503314.00
 20
1144714.00
  0
VERTEX
  8
BEAVER_DAM
 10
503323.00
 20
1144709.00
  0
SEQEND
  8
BEAVER_DAM
  0
POLYLINE
  8
BEAVER_DAM
 66
     1
 62
     2
  6
CONTINUOUS
  0
VERTEX
  8
BEAVER_DAM
 10
505390.00
 20
1144699.00
  0
VERTEX
  8
BEAVER_DAM
 10
505394.00
 20
1144704.00
  0
SEQEND
  8
BEAVER_DAM
  0
POLYLINE
  8
BEAVER_DAM
 66
     1
 62
     2
  6
CONTINUOUS
  0
VERTEX
  8
BEAVER_DAM
 10
503323.00
 20
1144709.00
  0
VERTEX
  8
BEAVER_DAM
 10
503336.00
 20
1144698.00
  0
SEQEND
  8
BEAVER_DAM
  0
POLYLINE
  8
RIVER_STREAM_SINGLE_LINE
 66
     1
 62
     5
  6
CONTINUOUS
  0
VERTEX
  8
RIVER_STREAM_SINGLE_LINE
 10
506991.00
 20
1144468.00
  0
VERTEX
  8
RIVER_STREAM_SINGLE_LINE
 10
506994.00
 20
1144472.00
  0
VERTEX
  8
RIVER_STREAM_SINGLE_LINE
 10
506997.00
 20
1144477.00
  0
SEQEND
  8
RIVER_STREAM_SINGLE_LINE
  0
POLYLINE
  8
BEAVER_DAM
 66
     1
 62
     2
  6
CONTINUOUS
  0
VERTEX
  8
BEAVER_DAM
 10
505240.00
 20
1144373.00
  0
VERTEX
  8
BEAVER_DAM
 10
505246.00
 20
1144369.00
  0
SEQEND
  8
BEAVER_DAM
  0
POLYLINE
  8
BEAVER_DAM
 66
     1
 62
     2
  6
CONTINUOUS
  0
VERTEX
  8
BEAVER_DAM
 10
505246.00
 20
1144369.00
  0
VERTEX
  8
BEAVER_DAM
 10
505266.00
 20
1144355.00
  0
SEQEND
  8
BEAVER_DAM
  0
POLYLINE
  8
RIVER_STREAM_SINGLE_LINE
 66
     1
 62
     5
  6
CONTINUOUS
  0
VERTEX
  8
RIVER_STREAM_SINGLE_LINE
 10
505246.00
 20
1144369.00
  0
VERTEX
  8
RIVER_STREAM_SINGLE_LINE
 10
505239.00
 20
1144350.00
  0
SEQEND
  8
RIVER_STREAM_SINGLE_LINE
  0
POLYLINE
  8
RIVER_STREAM_SINGLE_LINE
 66
     1
 62
     5
  6
CONTINUOUS
  0
VERTEX
  8
RIVER_STREAM_SINGLE_LINE
 10
506900.00
 20
1144284.00
  0
VERTEX
  8
RIVER_STREAM_SINGLE_LINE
 10
506901.00
 20
1144312.00
  0
VERTEX
  8
RIVER_STREAM_SINGLE_LINE
 10
506899.00
 20
1144336.00
  0
VERTEX
  8
RIVER_STREAM_SINGLE_LINE
 10
506903.00
 20
1144344.00
  0
VERTEX
  8
RIVER_STREAM_SINGLE_LINE
 10
506921.00
 20
1144359.00
  0
VERTEX
  8
RIVER_STREAM_SINGLE_LINE
 10
506939.00
 20
1144382.00
  0
VERTEX
  8
RIVER_STREAM_SINGLE_LINE
 10
506956.00
 20
1144411.00
  0
VERTEX
  8
RIVER_STREAM_SINGLE_LINE
 10
506974.00
 20
1144442.00
  0
VERTEX
  8
RIVER_STREAM_SINGLE_LINE
 10
506991.00
 20
1144468.00
  0
SEQEND
  8
RIVER_STREAM_SINGLE_LINE
  0
POLYLINE
  8
BEAVER_DAM
 66
     1
 62
     2
  6
CONTINUOUS
  0
VERTEX
  8
BEAVER_DAM
 10
506887.00
 20
1144288.00
  0
VERTEX
  8
BEAVER_DAM
 10
506899.00
 20
1144285.00
  0
VERTEX
  8
BEAVER_DAM
 10
506900.00
 20
1144284.00
  0
SEQEND
  8
BEAVER_DAM
  0
POLYLINE
  8
BEAVER_DAM
 66
     1
 62
     2
  6
CONTINUOUS
  0
VERTEX
  8
BEAVER_DAM
 10
505212.00
 20
1144274.00
  0
VERTEX
  8
BEAVER_DAM
 10
505220.00
 20
1144279.00
  0
SEQEND
  8
BEAVER_DAM
  0
POLYLINE
  8
BEAVER_DAM
 66
     1
 62
     2
  6
CONTINUOUS
  0
VERTEX
  8
BEAVER_DAM
 10
506900.00
 20
1144284.00
  0
VERTEX
  8
BEAVER_DAM
 10
506910.00
 20
1144274.00
  0
VERTEX
  8
BEAVER_DAM
 10
506919.00
 20
1144264.00
  0
SEQEND
  8
BEAVER_DAM
  0
POLYLINE
  8
BEAVER_DAM
 66
     1
 62
     2
  6
CONTINUOUS
  0
VERTEX
  8
BEAVER_DAM
 10
506919.00
 20
1144264.00
  0
VERTEX
  8
BEAVER_DAM
 10
506936.00
 20
1144260.00
  0
SEQEND
  8
BEAVER_DAM
  0
POLYLINE
  8
BEAVER_DAM
 66
     1
 62
     2
  6
CONTINUOUS
  0
VERTEX
  8
BEAVER_DAM
 10
506882.00
 20
1144179.00
  0
VERTEX
  8
BEAVER_DAM
 10
506895.00
 20
1144172.00
  0
SEQEND
  8
BEAVER_DAM
  0
POLYLINE
  8
BEAVER_DAM
 66
     1
 62
     2
  6
CONTINUOUS
  0
VERTEX
  8
BEAVER_DAM
 10
505281.00
 20
1144170.00
  0
VERTEX
  8
BEAVER_DAM
 10
505288.00
 20
1144173.00
  0
SEQEND
  8
BEAVER_DAM
  0
POLYLINE
  8
BEAVER_DAM
 66
     1
 62
     2
  6
CONTINUOUS
  0
VERTEX
  8
BEAVER_DAM
 10
505276.00
 20
1144172.00
  0
VERTEX
  8
BEAVER_DAM
 10
505281.00
 20
1144170.00
  0
SEQEND
  8
BEAVER_DAM
  0
POLYLINE
  8
BEAVER_DAM
 66
     1
 62
     2
  6
CONTINUOUS
  0
VERTEX
  8
BEAVER_DAM
 10
505234.00
 20
1144164.00
  0
VERTEX
  8
BEAVER_DAM
 10
505243.00
 20
1144165.00
  0
SEQEND
  8
BEAVER_DAM
  0
POLYLINE
  8
BEAVER_DAM
 66
     1
 62
     2
  6
CONTINUOUS
  0
VERTEX
  8
BEAVER_DAM
 10
505294.00
 20
1144135.00
  0
VERTEX
  8
BEAVER_DAM
 10
505299.00
 20
1144139.00
  0
SEQEND
  8
BEAVER_DAM
  0
POLYLINE
  8
BEAVER_DAM
 66
     1
 62
     2
  6
CONTINUOUS
  0
VERTEX
  8
BEAVER_DAM
 10
505230.00
 20
1144129.00
  0
VERTEX
  8
BEAVER_DAM
 10
505241.00
 20
1144128.00
  0
SEQEND
  8
BEAVER_DAM
  0
POLYLINE
  8
BEAVER_DAM
 66
     1
 62
     2
  6
CONTINUOUS
  0
VERTEX
  8
BEAVER_DAM
 10
505241.00
 20
1144128.00
  0
VERTEX
  8
BEAVER_DAM
 10
505259.00
 20
1144118.00
  0
SEQEND
  8
BEAVER_DAM
  0
POLYLINE
  8
BEAVER_DAM
 66
     1
 62
     2
  6
CONTINUOUS
  0
VERTEX
  8
BEAVER_DAM
 10
505259.00
 20
1144118.00
  0
VERTEX
  8
BEAVER_DAM
 10
505269.00
 20
1144113.00
  0
VERTEX
  8
BEAVER_DAM
 10
505294.00
 20
1144135.00
  0
SEQEND
  8
BEAVER_DAM
  0
POLYLINE
  8
RIVER_STREAM_SINGLE_LINE
 66
     1
 62
     5
  6
CONTINUOUS
  0
VERTEX
  8
RIVER_STREAM_SINGLE_LINE
 10
505259.00
 20
1144118.00
  0
VERTEX
  8
RIVER_STREAM_SINGLE_LINE
 10
505255.00
 20
1144093.00
  0
VERTEX
  8
RIVER_STREAM_SINGLE_LINE
 10
505260.00
 20
1144074.00
  0
VERTEX
  8
RIVER_STREAM_SINGLE_LINE
 10
505271.00
 20
1144062.00
  0
VERTEX
  8
RIVER_STREAM_SINGLE_LINE
 10
505290.00
 20
1144054.00
  0
VERTEX
  8
RIVER_STREAM_SINGLE_LINE
 10
505308.00
 20
1144047.00
  0
VERTEX
  8
RIVER_STREAM_SINGLE_LINE
 10
505319.00
 20
1144038.00
  0
VERTEX
  8
RIVER_STREAM_SINGLE_LINE
 10
505323.00
 20
1144020.00
  0
VERTEX
  8
RIVER_STREAM_SINGLE_LINE
 10
505327.00
 20
1144003.00
  0
VERTEX
  8
RIVER_STREAM_SINGLE_LINE
 10
505331.00
 20
1143989.00
  0
SEQEND
  8
RIVER_STREAM_SINGLE_LINE
  0
POLYLINE
  8
BEAVER_DAM
 66
     1
 62
     2
  6
CONTINUOUS
  0
VERTEX
  8
BEAVER_DAM
 10
502457.00
 20
1143961.00
  0
VERTEX
  8
BEAVER_DAM
 10
502458.00
 20
1143950.00
  0
SEQEND
  8
BEAVER_DAM
  0
POLYLINE
  8
BEAVER_DAM
 66
     1
 62
     2
  6
CONTINUOUS
  0
VERTEX
  8
BEAVER_DAM
 10
502493.00
 20
1143893.00
  0
VERTEX
  8
BEAVER_DAM
 10
502497.00
 20
1143885.00
  0
SEQEND
  8
BEAVER_DAM
  0
POLYLINE
  8
RIVER_STREAM_SINGLE_LINE
 66
     1
 62
     5
  6
CONTINUOUS
  0
VERTEX
  8
RIVER_STREAM_SINGLE_LINE
 10
509870.00
 20
1143916.00
  0
VERTEX
  8
RIVER_STREAM_SINGLE_LINE
 10
509863.00
 20
1143902.00
  0
VERTEX
  8
RIVER_STREAM_SINGLE_LINE
 10
509861.00
 20
1143898.00
  0
VERTEX
  8
RIVER_STREAM_SINGLE_LINE
 10
509857.00
 20
1143892.00
  0
VERTEX
  8
RIVER_STREAM_SINGLE_LINE
 10
509852.00
 20
1143887.00
  0
VERTEX
  8
RIVER_STREAM_SINGLE_LINE
 10
509843.00
 20
1143880.00
  0
VERTEX
  8
RIVER_STREAM_SINGLE_LINE
 10
509831.00
 20
1143869.00
  0
SEQEND
  8
RIVER_STREAM_SINGLE_LINE
  0
POLYLINE
  8
RIVER_STREAM_SINGLE_LINE
 66
     1
 62
     5
  6
CONTINUOUS
  0
VERTEX
  8
RIVER_STREAM_SINGLE_LINE
 10
500140.00
 20
1143673.00
  0
VERTEX
  8
RIVER_STREAM_SINGLE_LINE
 10
500143.00
 20
1143675.00
  0
VERTEX
  8
RIVER_STREAM_SINGLE_LINE
 10
500167.00
 20
1143693.00
  0
VERTEX
  8
RIVER_STREAM_SINGLE_LINE
 10
500190.00
 20
1143717.00
  0
VERTEX
  8
RIVER_STREAM_SINGLE_LINE
 10
500212.00
 20
1143739.00
  0
VERTEX
  8
RIVER_STREAM_SINGLE_LINE
 10
500235.00
 20
1143759.00
  0
VERTEX
  8
RIVER_STREAM_SINGLE_LINE
 10
500256.00
 20
1143777.00
  0
VERTEX
  8
RIVER_STREAM_SINGLE_LINE
 10
500277.00
 20
1143797.00
  0
VERTEX
  8
RIVER_STREAM_SINGLE_LINE
 10
500293.00
 20
1143810.00
  0
SEQEND
  8
RIVER_STREAM_SINGLE_LINE
  0
POLYLINE
  8
VIRTUAL_SEGMENT_STREAM
 66
     1
 62
     2
  6
CONTINUOUS
  0
VERTEX
  8
VIRTUAL_SEGMENT_STREAM
 10
500121.00
 20
1143654.00
  0
VERTEX
  8
VIRTUAL_SEGMENT_STREAM
 10
500140.00
 20
1143673.00
  0
SEQEND
  8
VIRTUAL_SEGMENT_STREAM
  0
POLYLINE
  8
RIVER_STREAM_SINGLE_LINE
 66
     1
 62
     5
  6
CONTINUOUS
  0
VERTEX
  8
RIVER_STREAM_SINGLE_LINE
 10
500000.00
 20
1143577.00
  0
VERTEX
  8
RIVER_STREAM_SINGLE_LINE
 10
500022.00
 20
1143590.00
  0
VERTEX
  8
RIVER_STREAM_SINGLE_LINE
 10
500044.00
 20
1143611.00
  0
VERTEX
  8
RIVER_STREAM_SINGLE_LINE
 10
500069.00
 20
1143625.00
  0
VERTEX
  8
RIVER_STREAM_SINGLE_LINE
 10
500088.00
 20
1143632.00
  0
VERTEX
  8
RIVER_STREAM_SINGLE_LINE
 10
500103.00
 20
1143637.00
  0
VERTEX
  8
RIVER_STREAM_SINGLE_LINE
 10
500117.00
 20
1143648.00
  0
VERTEX
  8
RIVER_STREAM_SINGLE_LINE
 10
500121.00
 20
1143654.00
  0
SEQEND
  8
RIVER_STREAM_SINGLE_LINE
  0
POLYLINE
  8
RIVER_STREAM_SINGLE_LINE
 66
     1
 62
     5
  6
CONTINUOUS
  0
VERTEX
  8
RIVER_STREAM_SINGLE_LINE
 10
504798.00
 20
1143556.00
  0
VERTEX
  8
RIVER_STREAM_SINGLE_LINE
 10
504826.00
 20
1143567.00
  0
VERTEX
  8
RIVER_STREAM_SINGLE_LINE
 10
504849.00
 20
1143579.00
  0
VERTEX
  8
RIVER_STREAM_SINGLE_LINE
 10
504872.00
 20
1143597.00
  0
VERTEX
  8
RIVER_STREAM_SINGLE_LINE
 10
504898.00
 20
1143607.00
  0
VERTEX
  8
RIVER_STREAM_SINGLE_LINE
 10
504925.00
 20
1143605.00
  0
VERTEX
  8
RIVER_STREAM_SINGLE_LINE
 10
504948.00
 20
1143598.00
  0
SEQEND
  8
RIVER_STREAM_SINGLE_LINE
  0
POLYLINE
  8
RIVER_STREAM_SINGLE_LINE
 66
     1
 62
     5
  6
CONTINUOUS
  0
VERTEX
  8
RIVER_STREAM_SINGLE_LINE
 10
509106.00
 20
1143551.00
  0
VERTEX
  8
RIVER_STREAM_SINGLE_LINE
 10
509113.00
 20
1143550.00
  0
VERTEX
  8
RIVER_STREAM_SINGLE_LINE
 10
509122.00
 20
1143556.00
  0
VERTEX
  8
RIVER_STREAM_SINGLE_LINE
 10
509131.00
 20
1143562.00
  0
SEQEND
  8
RIVER_STREAM_SINGLE_LINE
  0
POLYLINE
  8
BEAVER_DAM
 66
     1
 62
     2
  6
CONTINUOUS
  0
VERTEX
  8
BEAVER_DAM
 10
508962.00
 20
1143499.00
  0
VERTEX
  8
BEAVER_DAM
 10
508970.00
 20
1143496.00
  0
SEQEND
  8
BEAVER_DAM
  0
POLYLINE
  8
BEAVER_DAM
 66
     1
 62
     2
  6
CONTINUOUS
  0
VERTEX
  8
BEAVER_DAM
 10
508970.00
 20
1143496.00
  0
VERTEX
  8
BEAVER_DAM
 10
508977.00
 20
1143489.00
  0
VERTEX
  8
BEAVER_DAM
 10
508979.00
 20
1143480.00
  0
SEQEND
  8
BEAVER_DAM
  0
POLYLINE
  8
BEAVER_DAM
 66
     1
 62
     2
  6
CONTINUOUS
  0
VERTEX
  8
BEAVER_DAM
 10
508979.00
 20
1143480.00
  0
VERTEX
  8
BEAVER_DAM
 10
508981.00
 20
1143473.00
  0
VERTEX
  8
BEAVER_DAM
 10
508990.00
 20
1143457.00
  0
SEQEND
  8
BEAVER_DAM
  0
POLYLINE
  8
RIVER_STREAM_SINGLE_LINE
 66
     1
 62
     5
  6
CONTINUOUS
  0
VERTEX
  8
RIVER_STREAM_SINGLE_LINE
 10
508955.00
 20
1143454.00
  0
VERTEX
  8
RIVER_STREAM_SINGLE_LINE
 10
508969.00
 20
1143463.00
  0
VERTEX
  8
RIVER_STREAM_SINGLE_LINE
 10
508979.00
 20
1143480.00
  0
SEQEND
  8
RIVER_STREAM_SINGLE_LINE
  0
POLYLINE
  8
BEAVER_DAM
 66
     1
 62
     2
  6
CONTINUOUS
  0
VERTEX
  8
BEAVER_DAM
 10
508990.00
 20
1143457.00
  0
VERTEX
  8
BEAVER_DAM
 10
508990.00
 20
1143449.00
  0
SEQEND
  8
BEAVER_DAM
  0
POLYLINE
  8
RIVER_STREAM_SINGLE_LINE
 66
     1
 62
     5
  6
CONTINUOUS
  0
VERTEX
  8
RIVER_STREAM_SINGLE_LINE
 10
509893.00
 20
1143265.00
  0
VERTEX
  8
RIVER_STREAM_SINGLE_LINE
 10
509902.00
 20
1143292.00
  0
VERTEX
  8
RIVER_STREAM_SINGLE_LINE
 10
509914.00
 20
1143321.00
  0
VERTEX
  8
RIVER_STREAM_SINGLE_LINE
 10
509924.00
 20
1143348.00
  0
VERTEX
  8
RIVER_STREAM_SINGLE_LINE
 10
509926.00
 20
1143372.00
  0
VERTEX
  8
RIVER_STREAM_SINGLE_LINE
 10
509926.00
 20
1143402.00
  0
VERTEX
  8
RIVER_STREAM_SINGLE_LINE
 10
509923.00
 20
1143425.00
  0
VERTEX
  8
RIVER_STREAM_SINGLE_LINE
 10
509924.00
 20
1143443.00
  0
VERTEX
  8
RIVER_STREAM_SINGLE_LINE
 10
509934.00
 20
1143462.00
  0
VERTEX
  8
RIVER_STREAM_SINGLE_LINE
 10
509945.00
 20
1143479.00
  0
VERTEX
  8
RIVER_STREAM_SINGLE_LINE
 10
509957.00
 20
1143501.00
  0
SEQEND
  8
RIVER_STREAM_SINGLE_LINE
  0
POLYLINE
  8
BEAVER_DAM
 66
     1
 62
     2
  6
CONTINUOUS
  0
VERTEX
  8
BEAVER_DAM
 10
509877.00
 20
1143274.00
  0
VERTEX
  8
BEAVER_DAM
 10
509893.00
 20
1143265.00
  0
SEQEND
  8
BEAVER_DAM
  0
POLYLINE
  8
RIVER_STREAM_SINGLE_LINE
 66
     1
 62
     5
  6
CONTINUOUS
  0
VERTEX
  8
RIVER_STREAM_SINGLE_LINE
 10
504034.00
 20
1143257.00
  0
VERTEX
  8
RIVER_STREAM_SINGLE_LINE
 10
504039.00
 20
1143261.00
  0
VERTEX
  8
RIVER_STREAM_SINGLE_LINE
 10
504048.00
 20
1143261.00
  0
VERTEX
  8
RIVER_STREAM_SINGLE_LINE
 10
504051.00
 20
1143261.00
  0
VERTEX
  8
RIVER_STREAM_SINGLE_LINE
 10
504059.00
 20
1143267.00
  0
SEQEND
  8
RIVER_STREAM_SINGLE_LINE
  0
POLYLINE
  8
BEAVER_DAM
 66
     1
 62
     2
  6
CONTINUOUS
  0
VERTEX
  8
BEAVER_DAM
 10
509893.00
 20
1143265.00
  0
VERTEX
  8
BEAVER_DAM
 10
509910.00
 20
1143255.00
  0
SEQEND
  8
BEAVER_DAM
  0
POLYLINE
  8
RIVER_STREAM_SINGLE_LINE
 66
     1
 62
     5
  6
CONTINUOUS
  0
VERTEX
  8
RIVER_STREAM_SINGLE_LINE
 10
503988.00
 20
1143243.00
  0
VERTEX
  8
RIVER_STREAM_SINGLE_LINE
 10
503995.00
 20
1143242.00
  0
VERTEX
  8
RIVER_STREAM_SINGLE_LINE
 10
503997.00
 20
1143241.00
  0
VERTEX
  8
RIVER_STREAM_SINGLE_LINE
 10
504001.00
 20
1143239.00
  0
VERTEX
  8
RIVER_STREAM_SINGLE_LINE
 10
504009.00
 20
1143238.00
  0
VERTEX
  8
RIVER_STREAM_SINGLE_LINE
 10
504012.00
 20
1143240.00
  0
VERTEX
  8
RIVER_STREAM_SINGLE_LINE
 10
504015.00
 20
1143242.00
  0
VERTEX
  8
RIVER_STREAM_SINGLE_LINE
 10
504018.00
 20
1143245.00
  0
VERTEX
  8
RIVER_STREAM_SINGLE_LINE
 10
504025.00
 20
1143250.00
  0
VERTEX
  8
RIVER_STREAM_SINGLE_LINE
 10
504030.00
 20
1143254.00
  0
VERTEX
  8
RIVER_STREAM_SINGLE_LINE
 10
504034.00
 20
1143257.00
  0
SEQEND
  8
RIVER_STREAM_SINGLE_LINE
  0
POLYLINE
  8
BEAVER_DAM
 66
     1
 62
     2
  6
CONTINUOUS
  0
VERTEX
  8
BEAVER_DAM
 10
509874.00
 20
1143208.00
  0
VERTEX
  8
BEAVER_DAM
 10
509886.00
 20
1143202.00
  0
SEQEND
  8
BEAVER_DAM
  0
POLYLINE
  8
BEAVER_DAM
 66
     1
 62
     2
  6
CONTINUOUS
  0
VERTEX
  8
BEAVER_DAM
 10
509901.00
 20
1143200.00
  0
VERTEX
  8
BEAVER_DAM
 10
509908.00
 20
1143198.00
  0
SEQEND
  8
BEAVER_DAM
  0
POLYLINE
  8
BEAVER_DAM
 66
     1
 62
     2
  6
CONTINUOUS
  0
VERTEX
  8
BEAVER_DAM
 10
504334.00
 20
1143194.00
  0
VERTEX
  8
BEAVER_DAM
 10
504341.00
 20
1143190.00
  0
SEQEND
  8
BEAVER_DAM
  0
POLYLINE
  8
BEAVER_DAM
 66
     1
 62
     2
  6
CONTINUOUS
  0
VERTEX
  8
BEAVER_DAM
 10
509875.00
 20
1143186.00
  0
VERTEX
  8
BEAVER_DAM
 10
509884.00
 20
1143185.00
  0
SEQEND
  8
BEAVER_DAM
  0
POLYLINE
  8
BEAVER_DAM
 66
     1
 62
     2
  6
CONTINUOUS
  0
VERTEX
  8
BEAVER_DAM
 10
509895.00
 20
1143184.00
  0
VERTEX
  8
BEAVER_DAM
 10
509897.00
 20
1143177.00
  0
SEQEND
  8
BEAVER_DAM
  0
POLYLINE
  8
BEAVER_DAM
 66
     1
 62
     2
  6
CONTINUOUS
  0
VERTEX
  8
BEAVER_DAM
 10
509897.00
 20
1143177.00
  0
VERTEX
  8
BEAVER_DAM
 10
509903.00
 20
1143173.00
  0
SEQEND
  8
BEAVER_DAM
  0
POLYLINE
  8
RIVER_STREAM_SINGLE_LINE
 66
     1
 62
     5
  6
CONTINUOUS
  0
VERTEX
  8
RIVER_STREAM_SINGLE_LINE
 10
505242.00
 20
1143435.00
  0
VERTEX
  8
RIVER_STREAM_SINGLE_LINE
 10
505232.00
 20
1143403.00
  0
VERTEX
  8
RIVER_STREAM_SINGLE_LINE
 10
505212.00
 20
1143365.00
  0
VERTEX
  8
RIVER_STREAM_SINGLE_LINE
 10
505197.00
 20
1143336.00
  0
VERTEX
  8
RIVER_STREAM_SINGLE_LINE
 10
505182.00
 20
1143316.00
  0
VERTEX
  8
RIVER_STREAM_SINGLE_LINE
 10
505174.00
 20
1143300.00
  0
VERTEX
  8
RIVER_STREAM_SINGLE_LINE
 10
505171.00
 20
1143273.00
  0
VERTEX
  8
RIVER_STREAM_SINGLE_LINE
 10
505164.00
 20
1143244.00
  0
VERTEX
  8
RIVER_STREAM_SINGLE_LINE
 10
505159.00
 20
1143216.00
  0
VERTEX
  8
RIVER_STREAM_SINGLE_LINE
 10
505152.00
 20
1143208.00
  0
VERTEX
  8
RIVER_STREAM_SINGLE_LINE
 10
505132.00
 20
1143187.00
  0
VERTEX
  8
RIVER_STREAM_SINGLE_LINE
 10
505120.00
 20
1143173.00
  0
VERTEX
  8
RIVER_STREAM_SINGLE_LINE
 10
505106.00
 20
1143155.00
  0
SEQEND
  8
RIVER_STREAM_SINGLE_LINE
  0
POLYLINE
  8
BEAVER_DAM
 66
     1
 62
     2
  6
CONTINUOUS
  0
VERTEX
  8
BEAVER_DAM
 10
508826.00
 20
1143135.00
  0
VERTEX
  8
BEAVER_DAM
 10
508834.00
 20
1143134.00
  0
SEQEND
  8
BEAVER_DAM
  0
POLYLINE
  8
BEAVER_DAM
 66
     1
 62
     2
  6
CONTINUOUS
  0
VERTEX
  8
BEAVER_DAM
 10
508879.00
 20
1143134.00
  0
VERTEX
  8
BEAVER_DAM
 10
508907.00
 20
1143146.00
  0
VERTEX
  8
BEAVER_DAM
 10
508925.00
 20
1143156.00
  0
VERTEX
  8
BEAVER_DAM
 10
508933.00
 20
1143165.00
  0
SEQEND
  8
BEAVER_DAM
  0
POLYLINE
  8
BEAVER_DAM
 66
     1
 62
     2
  6
CONTINUOUS
  0
VERTEX
  8
BEAVER_DAM
 10
508834.00
 20
1143134.00
  0
VERTEX
  8
BEAVER_DAM
 10
508879.00
 20
1143134.00
  0
SEQEND
  8
BEAVER_DAM
  0
POLYLINE
  8
BEAVER_DAM
 66
     1
 62
     2
  6
CONTINUOUS
  0
VERTEX
  8
BEAVER_DAM
 10
509750.00
 20
1143111.00
  0
VERTEX
  8
BEAVER_DAM
 10
509756.00
 20
1143109.00
  0
SEQEND
  8
BEAVER_DAM
  0
POLYLINE
  8
BEAVER_DAM
 66
     1
 62
     2
  6
CONTINUOUS
  0
VERTEX
  8
BEAVER_DAM
 10
509756.00
 20
1143109.00
  0
VERTEX
  8
BEAVER_DAM
 10
509764.00
 20
1143107.00
  0
SEQEND
  8
BEAVER_DAM
  0
POLYLINE
  8
BEAVER_DAM
 66
     1
 62
     2
  6
CONTINUOUS
  0
VERTEX
  8
BEAVER_DAM
 10
509769.00
 20
1143094.00
  0
VERTEX
  8
BEAVER_DAM
 10
509776.00
 20
1143092.00
  0
SEQEND
  8
BEAVER_DAM
  0
POLYLINE
  8
BEAVER_DAM
 66
     1
 62
     2
  6
CONTINUOUS
  0
VERTEX
  8
BEAVER_DAM
 10
509776.00
 20
1143092.00
  0
VERTEX
  8
BEAVER_DAM
 10
509775.00
 20
1143083.00
  0
SEQEND
  8
BEAVER_DAM
  0
POLYLINE
  8
BEAVER_DAM
 66
     1
 62
     2
  6
CONTINUOUS
  0
VERTEX
  8
BEAVER_DAM
 10
509326.00
 20
1143054.00
  0
VERTEX
  8
BEAVER_DAM
 10
509336.00
 20
1143054.00
  0
SEQEND
  8
BEAVER_DAM
  0
POLYLINE
  8
RIVER_STREAM_SINGLE_LINE
 66
     1
 62
     5
  6
CONTINUOUS
  0
VERTEX
  8
RIVER_STREAM_SINGLE_LINE
 10
504421.00
 20
1142995.00
  0
VERTEX
  8
RIVER_STREAM_SINGLE_LINE
 10
504433.00
 20
1142986.00
  0
SEQEND
  8
RIVER_STREAM_SINGLE_LINE
  0
POLYLINE
  8
BEAVER_DAM
 66
     1
 62
     2
  6
CONTINUOUS
  0
VERTEX
  8
BEAVER_DAM
 10
504627.00
 20
1143000.00
  0
VERTEX
  8
BEAVER_DAM
 10
504631.00
 20
1142985.00
  0
SEQEND
  8
BEAVER_DAM
  0
POLYLINE
  8
BEAVER_DAM
 66
     1
 62
     2
  6
CONTINUOUS
  0
VERTEX
  8
BEAVER_DAM
 10
504631.00
 20
1142985.00
  0
VERTEX
  8
BEAVER_DAM
 10
504634.00
 20
1142975.00
  0
SEQEND
  8
BEAVER_DAM
  0
POLYLINE
  8
BEAVER_DAM
 66
     1
 62
     2
  6
CONTINUOUS
  0
VERTEX
  8
BEAVER_DAM
 10
509658.00
 20
1142954.00
  0
VERTEX
  8
BEAVER_DAM
 10
509667.00
 20
1142955.00
  0
SEQEND
  8
BEAVER_DAM
  0
POLYLINE
  8
BEAVER_DAM
 66
     1
 62
     2
  6
CONTINUOUS
  0
VERTEX
  8
BEAVER_DAM
 10
509631.00
 20
1142948.00
  0
VERTEX
  8
BEAVER_DAM
 10
509641.00
 20
1142957.00
  0
SEQEND
  8
BEAVER_DAM
  0
POLYLINE
  8
BEAVER_DAM
 66
     1
 62
     2
  6
CONTINUOUS
  0
VERTEX
  8
BEAVER_DAM
 10
509622.00
 20
1142930.00
  0
VERTEX
  8
BEAVER_DAM
 10
509636.00
 20
1142935.00
  0
SEQEND
  8
BEAVER_DAM
  0
POLYLINE
  8
BEAVER_DAM
 66
     1
 62
     2
  6
CONTINUOUS
  0
VERTEX
  8
BEAVER_DAM
 10
509806.00
 20
1142965.00
  0
VERTEX
  8
BEAVER_DAM
 10
509818.00
 20
1142952.00
  0
VERTEX
  8
BEAVER_DAM
 10
509822.00
 20
1142946.00
  0
VERTEX
  8
BEAVER_DAM
 10
509819.00
 20
1142938.00
  0
VERTEX
  8
BEAVER_DAM
 10
509814.00
 20
1142931.00
  0
VERTEX
  8
BEAVER_DAM
 10
509809.00
 20
1142925.00
  0
VERTEX
  8
BEAVER_DAM
 10
509804.00
 20
1142923.00
  0
SEQEND
  8
BEAVER_DAM
  0
POLYLINE
  8
BEAVER_DAM
 66
     1
 62
     2
  6
CONTINUOUS
  0
VERTEX
  8
BEAVER_DAM
 10
509804.00
 20
1142923.00
  0
VERTEX
  8
BEAVER_DAM
 10
509800.00
 20
1142919.00
  0
SEQEND
  8
BEAVER_DAM
  0
POLYLINE
  8
BEAVER_DAM
 66
     1
 62
     2
  6
CONTINUOUS
  0
VERTEX
  8
BEAVER_DAM
 10
509738.00
 20
1142921.00
  0
VERTEX
  8
BEAVER_DAM
 10
509739.00
 20
1142912.00
  0
SEQEND
  8
BEAVER_DAM
  0
POLYLINE
  8
BEAVER_DAM
 66
     1
 62
     2
  6
CONTINUOUS
  0
VERTEX
  8
BEAVER_DAM
 10
509739.00
 20
1142912.00
  0
VERTEX
  8
BEAVER_DAM
 10
509740.00
 20
1142901.00
  0
SEQEND
  8
BEAVER_DAM
  0
POLYLINE
  8
RIVER_STREAM_SINGLE_LINE
 66
     1
 62
     5
  6
CONTINUOUS
  0
VERTEX
  8
RIVER_STREAM_SINGLE_LINE
 10
509661.00
 20
1142907.00
  0
VERTEX
  8
RIVER_STREAM_SINGLE_LINE
 10
509687.00
 20
1142900.00
  0
VERTEX
  8
RIVER_STREAM_SINGLE_LINE
 10
509705.00
 20
1142891.00
  0
VERTEX
  8
RIVER_STREAM_SINGLE_LINE
 10
509711.00
 20
1142891.00
  0
VERTEX
  8
RIVER_STREAM_SINGLE_LINE
 10
509722.00
 20
1142902.00
  0
VERTEX
  8
RIVER_STREAM_SINGLE_LINE
 10
509729.00
 20
1142911.00
  0
VERTEX
  8
RIVER_STREAM_SINGLE_LINE
 10
509739.00
 20
1142912.00
  0
SEQEND
  8
RIVER_STREAM_SINGLE_LINE
  0
POLYLINE
  8
BEAVER_DAM
 66
     1
 62
     2
  6
CONTINUOUS
  0
VERTEX
  8
BEAVER_DAM
 10
509606.00
 20
1142888.00
  0
VERTEX
  8
BEAVER_DAM
 10
509611.00
 20
1142888.00
  0
SEQEND
  8
BEAVER_DAM
  0
POLYLINE
  8
BEAVER_DAM
 66
     1
 62
     2
  6
CONTINUOUS
  0
VERTEX
  8
BEAVER_DAM
 10
509590.00
 20
1142884.00
  0
VERTEX
  8
BEAVER_DAM
 10
509606.00
 20
1142888.00
  0
SEQEND
  8
BEAVER_DAM
  0
POLYLINE
  8
BEAVER_DAM
 66
     1
 62
     2
  6
CONTINUOUS
  0
VERTEX
  8
BEAVER_DAM
 10
509740.00
 20
1142901.00
  0
VERTEX
  8
BEAVER_DAM
 10
509741.00
 20
1142884.00
  0
SEQEND
  8
BEAVER_DAM
  0
POLYLINE
  8
BEAVER_DAM
 66
     1
 62
     2
  6
CONTINUOUS
  0
VERTEX
  8
BEAVER_DAM
 10
509576.00
 20
1142881.00
  0
VERTEX
  8
BEAVER_DAM
 10
509590.00
 20
1142884.00
  0
SEQEND
  8
BEAVER_DAM
  0
POLYLINE
  8
RIVER_STREAM_SINGLE_LINE
 66
     1
 62
     5
  6
CONTINUOUS
  0
VERTEX
  8
RIVER_STREAM_SINGLE_LINE
 10
508587.00
 20
1142739.00
  0
VERTEX
  8
RIVER_STREAM_SINGLE_LINE
 10
508606.00
 20
1142743.00
  0
VERTEX
  8
RIVER_STREAM_SINGLE_LINE
 10
508613.00
 20
1142754.00
  0
VERTEX
  8
RIVER_STREAM_SINGLE_LINE
 10
508619.00
 20
1142773.00
  0
VERTEX
  8
RIVER_STREAM_SINGLE_LINE
 10
508619.00
 20
1142791.00
  0
VERTEX
  8
RIVER_STREAM_SINGLE_LINE
 10
508623.00
 20
1142808.00
  0
VERTEX
  8
RIVER_STREAM_SINGLE_LINE
 10
508639.00
 20
1142824.00
  0
VERTEX
  8
RIVER_STREAM_SINGLE_LINE
 10
508662.00
 20
1142845.00
  0
VERTEX
  8
RIVER_STREAM_SINGLE_LINE
 10
508685.00
 20
1142865.00
  0
VERTEX
  8
RIVER_STREAM_SINGLE_LINE
 10
508710.00
 20
1142887.00
  0
VERTEX
  8
RIVER_STREAM_SINGLE_LINE
 10
508734.00
 20
1142902.00
  0
VERTEX
  8
RIVER_STREAM_SINGLE_LINE
 10
508756.00
 20
1142915.00
  0
VERTEX
  8
RIVER_STREAM_SINGLE_LINE
 10
508778.00
 20
1142921.00
  0
VERTEX
  8
RIVER_STREAM_SINGLE_LINE
 10
508792.00
 20
1142924.00
  0
VERTEX
  8
RIVER_STREAM_SINGLE_LINE
 10
508804.00
 20
1142929.00
  0
VERTEX
  8
RIVER_STREAM_SINGLE_LINE
 10
508814.00
 20
1142939.00
  0
VERTEX
  8
RIVER_STREAM_SINGLE_LINE
 10
508821.00
 20
1142960.00
  0
VERTEX
  8
RIVER_STREAM_SINGLE_LINE
 10
508829.00
 20
1142984.00
  0
VERTEX
  8
RIVER_STREAM_SINGLE_LINE
 10
508838.00
 20
1143008.00
  0
VERTEX
  8
RIVER_STREAM_SINGLE_LINE
 10
508850.00
 20
1143031.00
  0
VERTEX
  8
RIVER_STREAM_SINGLE_LINE
 10
508864.00
 20
1143062.00
  0
VERTEX
  8
RIVER_STREAM_SINGLE_LINE
 10
508870.00
 20
1143076.00
  0
VERTEX
  8
RIVER_STREAM_SINGLE_LINE
 10
508874.00
 20
1143097.00
  0
VERTEX
  8
RIVER_STREAM_SINGLE_LINE
 10
508876.00
 20
1143120.00
  0
VERTEX
  8
RIVER_STREAM_SINGLE_LINE
 10
508879.00
 20
1143134.00
  0
SEQEND
  8
RIVER_STREAM_SINGLE_LINE
  0
POLYLINE
  8
BEAVER_DAM
 66
     1
 62
     2
  6
CONTINUOUS
  0
VERTEX
  8
BEAVER_DAM
 10
502274.00
 20
1142724.00
  0
VERTEX
  8
BEAVER_DAM
 10
502280.00
 20
1142716.00
  0
SEQEND
  8
BEAVER_DAM
  0
POLYLINE
  8
RIVER_STREAM_SINGLE_LINE
 66
     1
 62
     5
  6
CONTINUOUS
  0
VERTEX
  8
RIVER_STREAM_SINGLE_LINE
 10
509083.00
 20
1142712.00
  0
VERTEX
  8
RIVER_STREAM_SINGLE_LINE
 10
509083.00
 20
1142713.00
  0
VERTEX
  8
RIVER_STREAM_SINGLE_LINE
 10
509086.00
 20
1142732.00
  0
VERTEX
  8
RIVER_STREAM_SINGLE_LINE
 10
509091.00
 20
1142746.00
  0
VERTEX
  8
RIVER_STREAM_SINGLE_LINE
 10
509101.00
 20
1142764.00
  0
VERTEX
  8
RIVER_STREAM_SINGLE_LINE
 10
509114.00
 20
1142788.00
  0
VERTEX
  8
RIVER_STREAM_SINGLE_LINE
 10
509122.00
 20
1142805.00
  0
VERTEX
  8
RIVER_STREAM_SINGLE_LINE
 10
509129.00
 20
1142816.00
  0
SEQEND
  8
RIVER_STREAM_SINGLE_LINE
  0
POLYLINE
  8
BEAVER_DAM
 66
     1
 62
     2
  6
CONTINUOUS
  0
VERTEX
  8
BEAVER_DAM
 10
502280.00
 20
1142716.00
  0
VERTEX
  8
BEAVER_DAM
 10
502304.00
 20
1142691.00
  0
SEQEND
  8
BEAVER_DAM
  0
POLYLINE
  8
BEAVER_DAM
 66
     1
 62
     2
  6
CONTINUOUS
  0
VERTEX
  8
BEAVER_DAM
 10
502304.00
 20
1142691.00
  0
VERTEX
  8
BEAVER_DAM
 10
502313.00
 20
1142682.00
  0
SEQEND
  8
BEAVER_DAM
  0
POLYLINE
  8
BEAVER_DAM
 66
     1
 62
     2
  6
CONTINUOUS
  0
VERTEX
  8
BEAVER_DAM
 10
502313.00
 20
1142682.00
  0
VERTEX
  8
BEAVER_DAM
 10
502319.00
 20
1142673.00
  0
SEQEND
  8
BEAVER_DAM
  0
POLYLINE
  8
RIVER_STREAM_SINGLE_LINE
 66
     1
 62
     5
  6
CONTINUOUS
  0
VERTEX
  8
RIVER_STREAM_SINGLE_LINE
 10
502215.00
 20
1142620.00
  0
VERTEX
  8
RIVER_STREAM_SINGLE_LINE
 10
502231.00
 20
1142629.00
  0
VERTEX
  8
RIVER_STREAM_SINGLE_LINE
 10
502248.00
 20
1142633.00
  0
VERTEX
  8
RIVER_STREAM_SINGLE_LINE
 10
502267.00
 20
1142646.00
  0
VERTEX
  8
RIVER_STREAM_SINGLE_LINE
 10
502272.00
 20
1142665.00
  0
VERTEX
  8
RIVER_STREAM_SINGLE_LINE
 10
502295.00
 20
1142682.00
  0
VERTEX
  8
RIVER_STREAM_SINGLE_LINE
 10
502304.00
 20
1142691.00
  0
SEQEND
  8
RIVER_STREAM_SINGLE_LINE
  0
POLYLINE
  8
VIRTUAL_SEGMENT_STREAM
 66
     1
 62
     2
  6
CONTINUOUS
  0
VERTEX
  8
VIRTUAL_SEGMENT_STREAM
 10
502194.00
 20
1142614.00
  0
VERTEX
  8
VIRTUAL_SEGMENT_STREAM
 10
502215.00
 20
1142620.00
  0
SEQEND
  8
VIRTUAL_SEGMENT_STREAM
  0
POLYLINE
  8
BEAVER_DAM
 66
     1
 62
     2
  6
CONTINUOUS
  0
VERTEX
  8
BEAVER_DAM
 10
509791.00
 20
1142605.00
  0
VERTEX
  8
BEAVER_DAM
 10
509827.00
 20
1142631.00
  0
SEQEND
  8
BEAVER_DAM
  0
POLYLINE
  8
RIVER_STREAM_SINGLE_LINE
 66
     1
 62
     5
  6
CONTINUOUS
  0
VERTEX
  8
RIVER_STREAM_SINGLE_LINE
 10
502132.00
 20
1142603.00
  0
VERTEX
  8
RIVER_STREAM_SINGLE_LINE
 10
502152.00
 20
1142604.00
  0
VERTEX
  8
RIVER_STREAM_SINGLE_LINE
 10
502174.00
 20
1142605.00
  0
VERTEX
  8
RIVER_STREAM_SINGLE_LINE
 10
502187.00
 20
1142608.00
  0
VERTEX
  8
RIVER_STREAM_SINGLE_LINE
 10
502194.00
 20
1142614.00
  0
SEQEND
  8
RIVER_STREAM_SINGLE_LINE
  0
POLYLINE
  8
BEAVER_DAM
 66
     1
 62
     2
  6
CONTINUOUS
  0
VERTEX
  8
BEAVER_DAM
 10
509777.00
 20
1142602.00
  0
VERTEX
  8
BEAVER_DAM
 10
509791.00
 20
1142605.00
  0
SEQEND
  8
BEAVER_DAM
  0
POLYLINE
  8
VIRTUAL_SEGMENT_STREAM
 66
     1
 62
     2
  6
CONTINUOUS
  0
VERTEX
  8
VIRTUAL_SEGMENT_STREAM
 10
502116.00
 20
1142599.00
  0
VERTEX
  8
VIRTUAL_SEGMENT_STREAM
 10
502132.00
 20
1142603.00
  0
SEQEND
  8
VIRTUAL_SEGMENT_STREAM
  0
POLYLINE
  8
RIVER_STREAM_SINGLE_LINE
 66
     1
 62
     5
  6
CONTINUOUS
  0
VERTEX
  8
RIVER_STREAM_SINGLE_LINE
 10
502113.00
 20
1142519.00
  0
VERTEX
  8
RIVER_STREAM_SINGLE_LINE
 10
502113.00
 20
1142542.00
  0
VERTEX
  8
RIVER_STREAM_SINGLE_LINE
 10
502111.00
 20
1142565.00
  0
VERTEX
  8
RIVER_STREAM_SINGLE_LINE
 10
502109.00
 20
1142585.00
  0
VERTEX
  8
RIVER_STREAM_SINGLE_LINE
 10
502114.00
 20
1142597.00
  0
VERTEX
  8
RIVER_STREAM_SINGLE_LINE
 10
502116.00
 20
1142599.00
  0
SEQEND
  8
RIVER_STREAM_SINGLE_LINE
  0
POLYLINE
  8
RIVER_STREAM_SINGLE_LINE
 66
     1
 62
     5
  6
CONTINUOUS
  0
VERTEX
  8
RIVER_STREAM_SINGLE_LINE
 10
509367.00
 20
1142462.00
  0
VERTEX
  8
RIVER_STREAM_SINGLE_LINE
 10
509380.00
 20
1142483.00
  0
VERTEX
  8
RIVER_STREAM_SINGLE_LINE
 10
509397.00
 20
1142509.00
  0
VERTEX
  8
RIVER_STREAM_SINGLE_LINE
 10
509407.00
 20
1142534.00
  0
VERTEX
  8
RIVER_STREAM_SINGLE_LINE
 10
509430.00
 20
1142554.00
  0
VERTEX
  8
RIVER_STREAM_SINGLE_LINE
 10
509452.00
 20
1142579.00
  0
VERTEX
  8
RIVER_STREAM_SINGLE_LINE
 10
509464.00
 20
1142598.00
  0
VERTEX
  8
RIVER_STREAM_SINGLE_LINE
 10
509469.00
 20
1142623.00
  0
VERTEX
  8
RIVER_STREAM_SINGLE_LINE
 10
509473.00
 20
1142657.00
  0
VERTEX
  8
RIVER_STREAM_SINGLE_LINE
 10
509480.00
 20
1142692.00
  0
VERTEX
  8
RIVER_STREAM_SINGLE_LINE
 10
509484.00
 20
1142716.00
  0
VERTEX
  8
RIVER_STREAM_SINGLE_LINE
 10
509488.00
 20
1142736.00
  0
VERTEX
  8
RIVER_STREAM_SINGLE_LINE
 10
509497.00
 20
1142753.00
  0
VERTEX
  8
RIVER_STREAM_SINGLE_LINE
 10
509506.00
 20
1142764.00
  0
VERTEX
  8
RIVER_STREAM_SINGLE_LINE
 10
509523.00
 20
1142781.00
  0
VERTEX
  8
RIVER_STREAM_SINGLE_LINE
 10
509541.00
 20
1142799.00
  0
VERTEX
  8
RIVER_STREAM_SINGLE_LINE
 10
509556.00
 20
1142821.00
  0
VERTEX
  8
RIVER_STREAM_SINGLE_LINE
 10
509567.00
 20
1142844.00
  0
VERTEX
  8
RIVER_STREAM_SINGLE_LINE
 10
509576.00
 20
1142862.00
  0
VERTEX
  8
RIVER_STREAM_SINGLE_LINE
 10
509590.00
 20
1142884.00
  0
SEQEND
  8
RIVER_STREAM_SINGLE_LINE
  0
POLYLINE
  8
RIVER_STREAM_SINGLE_LINE
 66
     1
 62
     5
  6
CONTINUOUS
  0
VERTEX
  8
RIVER_STREAM_SINGLE_LINE
 10
501585.00
 20
1142440.00
  0
VERTEX
  8
RIVER_STREAM_SINGLE_LINE
 10
501605.00
 20
1142453.00
  0
VERTEX
  8
RIVER_STREAM_SINGLE_LINE
 10
501633.00
 20
1142464.00
  0
VERTEX
  8
RIVER_STREAM_SINGLE_LINE
 10
501662.00
 20
1142473.00
  0
VERTEX
  8
RIVER_STREAM_SINGLE_LINE
 10
501692.00
 20
1142481.00
  0
VERTEX
  8
RIVER_STREAM_SINGLE_LINE
 10
501707.00
 20
1142487.00
  0
VERTEX
  8
RIVER_STREAM_SINGLE_LINE
 10
501717.00
 20
1142498.00
  0
VERTEX
  8
RIVER_STREAM_SINGLE_LINE
 10
501726.00
 20
1142505.00
  0
VERTEX
  8
RIVER_STREAM_SINGLE_LINE
 10
501738.00
 20
1142510.00
  0
VERTEX
  8
RIVER_STREAM_SINGLE_LINE
 10
501761.00
 20
1142511.00
  0
VERTEX
  8
RIVER_STREAM_SINGLE_LINE
 10
501790.00
 20
1142508.00
  0
VERTEX
  8
RIVER_STREAM_SINGLE_LINE
 10
501828.00
 20
1142509.00
  0
VERTEX
  8
RIVER_STREAM_SINGLE_LINE
 10
501853.00
 20
1142511.00
  0
VERTEX
  8
RIVER_STREAM_SINGLE_LINE
 10
501877.00
 20
1142515.00
  0
VERTEX
  8
RIVER_STREAM_SINGLE_LINE
 10
501898.00
 20
1142518.00
  0
VERTEX
  8
RIVER_STREAM_SINGLE_LINE
 10
501918.00
 20
1142524.00
  0
VERTEX
  8
RIVER_STREAM_SINGLE_LINE
 10
501934.00
 20
1142527.00
  0
VERTEX
  8
RIVER_STREAM_SINGLE_LINE
 10
501947.00
 20
1142529.00
  0
VERTEX
  8
RIVER_STREAM_SINGLE_LINE
 10
501956.00
 20
1142528.00
  0
VERTEX
  8
RIVER_STREAM_SINGLE_LINE
 10
501966.00
 20
1142520.00
  0
VERTEX
  8
RIVER_STREAM_SINGLE_LINE
 10
501980.00
 20
1142511.00
  0
VERTEX
  8
RIVER_STREAM_SINGLE_LINE
 10
501994.00
 20
1142508.00
  0
VERTEX
  8
RIVER_STREAM_SINGLE_LINE
 10
502018.00
 20
1142515.00
  0
VERTEX
  8
RIVER_STREAM_SINGLE_LINE
 10
502041.00
 20
1142520.00
  0
VERTEX
  8
RIVER_STREAM_SINGLE_LINE
 10
502069.00
 20
1142517.00
  0
VERTEX
  8
RIVER_STREAM_SINGLE_LINE
 10
502089.00
 20
1142520.00
  0
VERTEX
  8
RIVER_STREAM_SINGLE_LINE
 10
502113.00
 20
1142519.00
  0
SEQEND
  8
RIVER_STREAM_SINGLE_LINE
  0
POLYLINE
  8
RIVER_STREAM_SINGLE_LINE
 66
     1
 62
     5
  6
CONTINUOUS
  0
VERTEX
  8
RIVER_STREAM_SINGLE_LINE
 10
508930.00
 20
1142435.00
  0
VERTEX
  8
RIVER_STREAM_SINGLE_LINE
 10
508944.00
 20
1142437.00
  0
SEQEND
  8
RIVER_STREAM_SINGLE_LINE
  0
POLYLINE
  8
BEAVER_DAM
 66
     1
 62
     2
  6
CONTINUOUS
  0
VERTEX
  8
BEAVER_DAM
 10
508202.00
 20
1142332.00
  0
VERTEX
  8
BEAVER_DAM
 10
508205.00
 20
1142320.00
  0
VERTEX
  8
BEAVER_DAM
 10
508200.00
 20
1142315.00
  0
VERTEX
  8
BEAVER_DAM
 10
508207.00
 20
1142304.00
  0
VERTEX
  8
BEAVER_DAM
 10
508210.00
 20
1142304.00
  0
SEQEND
  8
BEAVER_DAM
  0
POLYLINE
  8
BEAVER_DAM
 66
     1
 62
     2
  6
CONTINUOUS
  0
VERTEX
  8
BEAVER_DAM
 10
508210.00
 20
1142304.00
  0
VERTEX
  8
BEAVER_DAM
 10
508219.00
 20
1142305.00
  0
VERTEX
  8
BEAVER_DAM
 10
508232.00
 20
1142298.00
  0
SEQEND
  8
BEAVER_DAM
  0
POLYLINE
  8
BEAVER_DAM
 66
     1
 62
     2
  6
CONTINUOUS
  0
VERTEX
  8
BEAVER_DAM
 10
508232.00
 20
1142298.00
  0
VERTEX
  8
BEAVER_DAM
 10
508237.00
 20
1142291.00
  0
SEQEND
  8
BEAVER_DAM
  0
POLYLINE
  8
RIVER_STREAM_SINGLE_LINE
 66
     1
 62
     5
  6
CONTINUOUS
  0
VERTEX
  8
RIVER_STREAM_SINGLE_LINE
 10
508815.00
 20
1142271.00
  0
VERTEX
  8
RIVER_STREAM_SINGLE_LINE
 10
508819.00
 20
1142278.00
  0
VERTEX
  8
RIVER_STREAM_SINGLE_LINE
 10
508822.00
 20
1142303.00
  0
VERTEX
  8
RIVER_STREAM_SINGLE_LINE
 10
508830.00
 20
1142312.00
  0
VERTEX
  8
RIVER_STREAM_SINGLE_LINE
 10
508847.00
 20
1142327.00
  0
VERTEX
  8
RIVER_STREAM_SINGLE_LINE
 10
508862.00
 20
1142345.00
  0
VERTEX
  8
RIVER_STREAM_SINGLE_LINE
 10
508877.00
 20
1142369.00
  0
VERTEX
  8
RIVER_STREAM_SINGLE_LINE
 10
508892.00
 20
1142395.00
  0
VERTEX
  8
RIVER_STREAM_SINGLE_LINE
 10
508902.00
 20
1142414.00
  0
VERTEX
  8
RIVER_STREAM_SINGLE_LINE
 10
508917.00
 20
1142431.00
  0
VERTEX
  8
RIVER_STREAM_SINGLE_LINE
 10
508930.00
 20
1142435.00
  0
SEQEND
  8
RIVER_STREAM_SINGLE_LINE
  0
POLYLINE
  8
RIVER_STREAM_SINGLE_LINE
 66
     1
 62
     5
  6
CONTINUOUS
  0
VERTEX
  8
RIVER_STREAM_SINGLE_LINE
 10
502098.00
 20
1142243.00
  0
VERTEX
  8
RIVER_STREAM_SINGLE_LINE
 10
502104.00
 20
1142272.00
  0
VERTEX
  8
RIVER_STREAM_SINGLE_LINE
 10
502101.00
 20
1142306.00
  0
VERTEX
  8
RIVER_STREAM_SINGLE_LINE
 10
502102.00
 20
1142341.00
  0
VERTEX
  8
RIVER_STREAM_SINGLE_LINE
 10
502108.00
 20
1142375.00
  0
VERTEX
  8
RIVER_STREAM_SINGLE_LINE
 10
502107.00
 20
1142405.00
  0
VERTEX
  8
RIVER_STREAM_SINGLE_LINE
 10
502105.00
 20
1142443.00
  0
VERTEX
  8
RIVER_STREAM_SINGLE_LINE
 10
502109.00
 20
1142473.00
  0
VERTEX
  8
RIVER_STREAM_SINGLE_LINE
 10
502110.00
 20
1142495.00
  0
VERTEX
  8
RIVER_STREAM_SINGLE_LINE
 10
502113.00
 20
1142519.00
  0
SEQEND
  8
RIVER_STREAM_SINGLE_LINE
  0
POLYLINE
  8
VIRTUAL_SEGMENT_STREAM
 66
     1
 62
     2
  6
CONTINUOUS
  0
VERTEX
  8
VIRTUAL_SEGMENT_STREAM
 10
502097.00
 20
1142225.00
  0
VERTEX
  8
VIRTUAL_SEGMENT_STREAM
 10
502098.00
 20
1142243.00
  0
SEQEND
  8
VIRTUAL_SEGMENT_STREAM
  0
POLYLINE
  8
RIVER_STREAM_SINGLE_LINE
 66
     1
 62
     5
  6
CONTINUOUS
  0
VERTEX
  8
RIVER_STREAM_SINGLE_LINE
 10
508086.00
 20
1142139.00
  0
VERTEX
  8
RIVER_STREAM_SINGLE_LINE
 10
508109.00
 20
1142170.00
  0
VERTEX
  8
RIVER_STREAM_SINGLE_LINE
 10
508130.00
 20
1142192.00
  0
VERTEX
  8
RIVER_STREAM_SINGLE_LINE
 10
508141.00
 20
1142218.00
  0
VERTEX
  8
RIVER_STREAM_SINGLE_LINE
 10
508150.00
 20
1142233.00
  0
VERTEX
  8
RIVER_STREAM_SINGLE_LINE
 10
508169.00
 20
1142244.00
  0
VERTEX
  8
RIVER_STREAM_SINGLE_LINE
 10
508184.00
 20
1142257.00
  0
VERTEX
  8
RIVER_STREAM_SINGLE_LINE
 10
508200.00
 20
1142272.00
  0
VERTEX
  8
RIVER_STREAM_SINGLE_LINE
 10
508202.00
 20
1142282.00
  0
VERTEX
  8
RIVER_STREAM_SINGLE_LINE
 10
508210.00
 20
1142304.00
  0
SEQEND
  8
RIVER_STREAM_SINGLE_LINE
  0
POLYLINE
  8
VIRTUAL_SEGMENT_STREAM
 66
     1
 62
     2
  6
CONTINUOUS
  0
VERTEX
  8
VIRTUAL_SEGMENT_STREAM
 10
502086.00
 20
1142114.00
  0
VERTEX
  8
VIRTUAL_SEGMENT_STREAM
 10
502105.00
 20
1142113.00
  0
SEQEND
  8
VIRTUAL_SEGMENT_STREAM
  0
POLYLINE
  8
RIVER_STREAM_SINGLE_LINE
 66
     1
 62
     5
  6
CONTINUOUS
  0
VERTEX
  8
RIVER_STREAM_SINGLE_LINE
 10
502075.00
 20
1142112.00
  0
VERTEX
  8
RIVER_STREAM_SINGLE_LINE
 10
502086.00
 20
1142114.00
  0
SEQEND
  8
RIVER_STREAM_SINGLE_LINE
  0
POLYLINE
  8
RIVER_STREAM_SINGLE_LINE
 66
     1
 62
     5
  6
CONTINUOUS
  0
VERTEX
  8
RIVER_STREAM_SINGLE_LINE
 10
502075.00
 20
1142112.00
  0
VERTEX
  8
RIVER_STREAM_SINGLE_LINE
 10
502081.00
 20
1142143.00
  0
VERTEX
  8
RIVER_STREAM_SINGLE_LINE
 10
502085.00
 20
1142168.00
  0
VERTEX
  8
RIVER_STREAM_SINGLE_LINE
 10
502091.00
 20
1142191.00
  0
VERTEX
  8
RIVER_STREAM_SINGLE_LINE
 10
502097.00
 20
1142225.00
  0
SEQEND
  8
RIVER_STREAM_SINGLE_LINE
  0
POLYLINE
  8
RIVER_STREAM_SINGLE_LINE
 66
     1
 62
     5
  6
CONTINUOUS
  0
VERTEX
  8
RIVER_STREAM_SINGLE_LINE
 10
502105.00
 20
1142113.00
  0
VERTEX
  8
RIVER_STREAM_SINGLE_LINE
 10
502123.00
 20
1142105.00
  0
VERTEX
  8
RIVER_STREAM_SINGLE_LINE
 10
502161.00
 20
1142097.00
  0
VERTEX
  8
RIVER_STREAM_SINGLE_LINE
 10
502179.00
 20
1142096.00
  0
VERTEX
  8
RIVER_STREAM_SINGLE_LINE
 10
502203.00
 20
1142102.00
  0
VERTEX
  8
RIVER_STREAM_SINGLE_LINE
 10
502230.00
 20
1142105.00
  0
VERTEX
  8
RIVER_STREAM_SINGLE_LINE
 10
502259.00
 20
1142102.00
  0
VERTEX
  8
RIVER_STREAM_SINGLE_LINE
 10
502275.00
 20
1142101.00
  0
VERTEX
  8
RIVER_STREAM_SINGLE_LINE
 10
502284.00
 20
1142098.00
  0
SEQEND
  8
RIVER_STREAM_SINGLE_LINE
  0
POLYLINE
  8
VIRTUAL_SEGMENT_STREAM
 66
     1
 62
     2
  6
CONTINUOUS
  0
VERTEX
  8
VIRTUAL_SEGMENT_STREAM
 10
502284.00
 20
1142098.00
  0
VERTEX
  8
VIRTUAL_SEGMENT_STREAM
 10
502306.00
 20
1142088.00
  0
SEQEND
  8
VIRTUAL_SEGMENT_STREAM
  0
POLYLINE
  8
RIVER_STREAM_SINGLE_LINE
 66
     1
 62
     5
  6
CONTINUOUS
  0
VERTEX
  8
RIVER_STREAM_SINGLE_LINE
 10
501841.00
 20
1142076.00
  0
VERTEX
  8
RIVER_STREAM_SINGLE_LINE
 10
501855.00
 20
1142076.00
  0
VERTEX
  8
RIVER_STREAM_SINGLE_LINE
 10
501887.00
 20
1142076.00
  0
VERTEX
  8
RIVER_STREAM_SINGLE_LINE
 10
501916.00
 20
1142079.00
  0
VERTEX
  8
RIVER_STREAM_SINGLE_LINE
 10
501938.00
 20
1142086.00
  0
VERTEX
  8
RIVER_STREAM_SINGLE_LINE
 10
501961.00
 20
1142094.00
  0
VERTEX
  8
RIVER_STREAM_SINGLE_LINE
 10
501995.00
 20
1142098.00
  0
VERTEX
  8
RIVER_STREAM_SINGLE_LINE
 10
502023.00
 20
1142106.00
  0
VERTEX
  8
RIVER_STREAM_SINGLE_LINE
 10
502041.00
 20
1142111.00
  0
VERTEX
  8
RIVER_STREAM_SINGLE_LINE
 10
502059.00
 20
1142113.00
  0
VERTEX
  8
RIVER_STREAM_SINGLE_LINE
 10
502075.00
 20
1142112.00
  0
SEQEND
  8
RIVER_STREAM_SINGLE_LINE
  0
POLYLINE
  8
VIRTUAL_SEGMENT_STREAM
 66
     1
 62
     2
  6
CONTINUOUS
  0
VERTEX
  8
VIRTUAL_SEGMENT_STREAM
 10
501826.00
 20
1142074.00
  0
VERTEX
  8
VIRTUAL_SEGMENT_STREAM
 10
501841.00
 20
1142076.00
  0
SEQEND
  8
VIRTUAL_SEGMENT_STREAM
  0
POLYLINE
  8
RIVER_STREAM_SINGLE_LINE
 66
     1
 62
     5
  6
CONTINUOUS
  0
VERTEX
  8
RIVER_STREAM_SINGLE_LINE
 10
508722.00
 20
1142068.00
  0
VERTEX
  8
RIVER_STREAM_SINGLE_LINE
 10
508742.00
 20
1142078.00
  0
VERTEX
  8
RIVER_STREAM_SINGLE_LINE
 10
508751.00
 20
1142089.00
  0
VERTEX
  8
RIVER_STREAM_SINGLE_LINE
 10
508755.00
 20
1142099.00
  0
VERTEX
  8
RIVER_STREAM_SINGLE_LINE
 10
508750.00
 20
1142109.00
  0
VERTEX
  8
RIVER_STREAM_SINGLE_LINE
 10
508747.00
 20
1142118.00
  0
VERTEX
  8
RIVER_STREAM_SINGLE_LINE
 10
508749.00
 20
1142131.00
  0
VERTEX
  8
RIVER_STREAM_SINGLE_LINE
 10
508759.00
 20
1142137.00
  0
VERTEX
  8
RIVER_STREAM_SINGLE_LINE
 10
508766.00
 20
1142145.00
  0
VERTEX
  8
RIVER_STREAM_SINGLE_LINE
 10
508772.00
 20
1142157.00
  0
VERTEX
  8
RIVER_STREAM_SINGLE_LINE
 10
508774.00
 20
1142164.00
  0
VERTEX
  8
RIVER_STREAM_SINGLE_LINE
 10
508767.00
 20
1142172.00
  0
VERTEX
  8
RIVER_STREAM_SINGLE_LINE
 10
508765.00
 20
1142178.00
  0
VERTEX
  8
RIVER_STREAM_SINGLE_LINE
 10
508767.00
 20
1142183.00
  0
VERTEX
  8
RIVER_STREAM_SINGLE_LINE
 10
508776.00
 20
1142191.00
  0
VERTEX
  8
RIVER_STREAM_SINGLE_LINE
 10
508781.00
 20
1142199.00
  0
VERTEX
  8
RIVER_STREAM_SINGLE_LINE
 10
508781.00
 20
1142214.00
  0
VERTEX
  8
RIVER_STREAM_SINGLE_LINE
 10
508778.00
 20
1142224.00
  0
VERTEX
  8
RIVER_STREAM_SINGLE_LINE
 10
508782.00
 20
1142234.00
  0
VERTEX
  8
RIVER_STREAM_SINGLE_LINE
 10
508791.00
 20
1142244.00
  0
VERTEX
  8
RIVER_STREAM_SINGLE_LINE
 10
508804.00
 20
1142257.00
  0
VERTEX
  8
RIVER_STREAM_SINGLE_LINE
 10
508815.00
 20
1142271.00
  0
SEQEND
  8
RIVER_STREAM_SINGLE_LINE
  0
POLYLINE
  8
BEAVER_DAM
 66
     1
 62
     2
  6
CONTINUOUS
  0
VERTEX
  8
BEAVER_DAM
 10
509122.00
 20
1142063.00
  0
VERTEX
  8
BEAVER_DAM
 10
509123.00
 20
1142049.00
  0
SEQEND
  8
BEAVER_DAM
  0
POLYLINE
  8
BEAVER_DAM
 66
     1
 62
     2
  6
CONTINUOUS
  0
VERTEX
  8
BEAVER_DAM
 10
507971.00
 20
1142058.00
  0
VERTEX
  8
BEAVER_DAM
 10
507972.00
 20
1142046.00
  0
SEQEND
  8
BEAVER_DAM
  0
POLYLINE
  8
RIVER_STREAM_SINGLE_LINE
 66
     1
 62
     5
  6
CONTINUOUS
  0
VERTEX
  8
RIVER_STREAM_SINGLE_LINE
 10
509136.00
 20
1142039.00
  0
VERTEX
  8
RIVER_STREAM_SINGLE_LINE
 10
509155.00
 20
1142056.00
  0
VERTEX
  8
RIVER_STREAM_SINGLE_LINE
 10
509166.00
 20
1142080.00
  0
VERTEX
  8
RIVER_STREAM_SINGLE_LINE
 10
509172.00
 20
1142081.00
  0
SEQEND
  8
RIVER_STREAM_SINGLE_LINE
  0
POLYLINE
  8
BEAVER_DAM
 66
     1
 62
     2
  6
CONTINUOUS
  0
VERTEX
  8
BEAVER_DAM
 10
509123.00
 20
1142049.00
  0
VERTEX
  8
BEAVER_DAM
 10
509136.00
 20
1142039.00
  0
SEQEND
  8
BEAVER_DAM
  0
POLYLINE
  8
BEAVER_DAM
 66
     1
 62
     2
  6
CONTINUOUS
  0
VERTEX
  8
BEAVER_DAM
 10
509154.00
 20
1142025.00
  0
VERTEX
  8
BEAVER_DAM
 10
509162.00
 20
1142028.00
  0
SEQEND
  8
BEAVER_DAM
  0
POLYLINE
  8
BEAVER_DAM
 66
     1
 62
     2
  6
CONTINUOUS
  0
VERTEX
  8
BEAVER_DAM
 10
509136.00
 20
1142039.00
  0
VERTEX
  8
BEAVER_DAM
 10
509154.00
 20
1142025.00
  0
SEQEND
  8
BEAVER_DAM
  0
POLYLINE
  8
RIVER_STREAM_SINGLE_LINE
 66
     1
 62
     5
  6
CONTINUOUS
  0
VERTEX
  8
RIVER_STREAM_SINGLE_LINE
 10
501507.00
 20
1142024.00
  0
VERTEX
  8
RIVER_STREAM_SINGLE_LINE
 10
501527.00
 20
1142043.00
  0
VERTEX
  8
RIVER_STREAM_SINGLE_LINE
 10
501546.00
 20
1142063.00
  0
VERTEX
  8
RIVER_STREAM_SINGLE_LINE
 10
501565.00
 20
1142079.00
  0
VERTEX
  8
RIVER_STREAM_SINGLE_LINE
 10
501588.00
 20
1142091.00
  0
VERTEX
  8
RIVER_STREAM_SINGLE_LINE
 10
501608.00
 20
1142099.00
  0
VERTEX
  8
RIVER_STREAM_SINGLE_LINE
 10
501635.00
 20
1142102.00
  0
VERTEX
  8
RIVER_STREAM_SINGLE_LINE
 10
501655.00
 20
1142097.00
  0
VERTEX
  8
RIVER_STREAM_SINGLE_LINE
 10
501689.00
 20
1142094.00
  0
VERTEX
  8
RIVER_STREAM_SINGLE_LINE
 10
501715.00
 20
1142094.00
  0
VERTEX
  8
RIVER_STREAM_SINGLE_LINE
 10
501744.00
 20
1142085.00
  0
VERTEX
  8
RIVER_STREAM_SINGLE_LINE
 10
501764.00
 20
1142074.00
  0
VERTEX
  8
RIVER_STREAM_SINGLE_LINE
 10
501791.00
 20
1142071.00
  0
VERTEX
  8
RIVER_STREAM_SINGLE_LINE
 10
501807.00
 20
1142072.00
  0
VERTEX
  8
RIVER_STREAM_SINGLE_LINE
 10
501826.00
 20
1142074.00
  0
SEQEND
  8
RIVER_STREAM_SINGLE_LINE
  0
POLYLINE
  8
BEAVER_DAM
 66
     1
 62
     2
  6
CONTINUOUS
  0
VERTEX
  8
BEAVER_DAM
 10
508004.00
 20
1141989.00
  0
VERTEX
  8
BEAVER_DAM
 10
508007.00
 20
1141979.00
  0
SEQEND
  8
BEAVER_DAM
  0
POLYLINE
  8
RIVER_STREAM_SINGLE_LINE
 66
     1
 62
     5
  6
CONTINUOUS
  0
VERTEX
  8
RIVER_STREAM_SINGLE_LINE
 10
508644.00
 20
1141977.00
  0
VERTEX
  8
RIVER_STREAM_SINGLE_LINE
 10
508651.00
 20
1141994.00
  0
VERTEX
  8
RIVER_STREAM_SINGLE_LINE
 10
508663.00
 20
1142003.00
  0
VERTEX
  8
RIVER_STREAM_SINGLE_LINE
 10
508679.00
 20
1142012.00
  0
VERTEX
  8
RIVER_STREAM_SINGLE_LINE
 10
508687.00
 20
1142020.00
  0
VERTEX
  8
RIVER_STREAM_SINGLE_LINE
 10
508692.00
 20
1142036.00
  0
VERTEX
  8
RIVER_STREAM_SINGLE_LINE
 10
508695.00
 20
1142051.00
  0
VERTEX
  8
RIVER_STREAM_SINGLE_LINE
 10
508699.00
 20
1142057.00
  0
VERTEX
  8
RIVER_STREAM_SINGLE_LINE
 10
508707.00
 20
1142065.00
  0
VERTEX
  8
RIVER_STREAM_SINGLE_LINE
 10
508722.00
 20
1142068.00
  0
SEQEND
  8
RIVER_STREAM_SINGLE_LINE
  0
POLYLINE
  8
BEAVER_DAM
 66
     1
 62
     2
  6
CONTINUOUS
  0
VERTEX
  8
BEAVER_DAM
 10
508007.00
 20
1141979.00
  0
VERTEX
  8
BEAVER_DAM
 10
508009.00
 20
1141973.00
  0
SEQEND
  8
BEAVER_DAM
  0
POLYLINE
  8
BEAVER_DAM
 66
     1
 62
     2
  6
CONTINUOUS
  0
VERTEX
  8
BEAVER_DAM
 10
509157.00
 20
1141962.00
  0
VERTEX
  8
BEAVER_DAM
 10
509167.00
 20
1141971.00
  0
SEQEND
  8
BEAVER_DAM
  0
POLYLINE
  8
RIVER_STREAM_SINGLE_LINE
 66
     1
 62
     5
  6
CONTINUOUS
  0
VERTEX
  8
RIVER_STREAM_SINGLE_LINE
 10
509157.00
 20
1141962.00
  0
VERTEX
  8
RIVER_STREAM_SINGLE_LINE
 10
509139.00
 20
1141969.00
  0
VERTEX
  8
RIVER_STREAM_SINGLE_LINE
 10
509115.00
 20
1141971.00
  0
VERTEX
  8
RIVER_STREAM_SINGLE_LINE
 10
509110.00
 20
1141988.00
  0
SEQEND
  8
RIVER_STREAM_SINGLE_LINE
  0
POLYLINE
  8
BEAVER_DAM
 66
     1
 62
     2
  6
CONTINUOUS
  0
VERTEX
  8
BEAVER_DAM
 10
509138.00
 20
1141956.00
  0
VERTEX
  8
BEAVER_DAM
 10
509157.00
 20
1141962.00
  0
SEQEND
  8
BEAVER_DAM
  0
POLYLINE
  8
BEAVER_DAM
 66
     1
 62
     2
  6
CONTINUOUS
  0
VERTEX
  8
BEAVER_DAM
 10
509128.00
 20
1141953.00
  0
VERTEX
  8
BEAVER_DAM
 10
509138.00
 20
1141956.00
  0
SEQEND
  8
BEAVER_DAM
  0
POLYLINE
  8
RIVER_STREAM_SINGLE_LINE
 66
     1
 62
     5
  6
CONTINUOUS
  0
VERTEX
  8
RIVER_STREAM_SINGLE_LINE
 10
505045.00
 20
1141876.00
  0
VERTEX
  8
RIVER_STREAM_SINGLE_LINE
 10
505049.00
 20
1141876.00
  0
SEQEND
  8
RIVER_STREAM_SINGLE_LINE
  0
POLYLINE
  8
RIVER_STREAM_SINGLE_LINE
 66
     1
 62
     5
  6
CONTINUOUS
  0
VERTEX
  8
RIVER_STREAM_SINGLE_LINE
 10
505061.00
 20
1141876.00
  0
VERTEX
  8
RIVER_STREAM_SINGLE_LINE
 10
505072.00
 20
1141879.00
  0
VERTEX
  8
RIVER_STREAM_SINGLE_LINE
 10
505083.00
 20
1141888.00
  0
SEQEND
  8
RIVER_STREAM_SINGLE_LINE
  0
POLYLINE
  8
VIRTUAL_SEGMENT_STREAM
 66
     1
 62
     2
  6
CONTINUOUS
  0
VERTEX
  8
VIRTUAL_SEGMENT_STREAM
 10
505049.00
 20
1141876.00
  0
VERTEX
  8
VIRTUAL_SEGMENT_STREAM
 10
505061.00
 20
1141876.00
  0
SEQEND
  8
VIRTUAL_SEGMENT_STREAM
  0
POLYLINE
  8
RIVER_STREAM_SINGLE_LINE
 66
     1
 62
     5
  6
CONTINUOUS
  0
VERTEX
  8
RIVER_STREAM_SINGLE_LINE
 10
505034.00
 20
1141875.00
  0
VERTEX
  8
RIVER_STREAM_SINGLE_LINE
 10
505045.00
 20
1141876.00
  0
SEQEND
  8
RIVER_STREAM_SINGLE_LINE
  0
POLYLINE
  8
RIVER_STREAM_SINGLE_LINE
 66
     1
 62
     5
  6
CONTINUOUS
  0
VERTEX
  8
RIVER_STREAM_SINGLE_LINE
 10
505005.00
 20
1141852.00
  0
VERTEX
  8
RIVER_STREAM_SINGLE_LINE
 10
505013.00
 20
1141863.00
  0
VERTEX
  8
RIVER_STREAM_SINGLE_LINE
 10
505024.00
 20
1141872.00
  0
VERTEX
  8
RIVER_STREAM_SINGLE_LINE
 10
505034.00
 20
1141875.00
  0
SEQEND
  8
RIVER_STREAM_SINGLE_LINE
  0
POLYLINE
  8
RIVER_STREAM_SINGLE_LINE
 66
     1
 62
     5
  6
CONTINUOUS
  0
VERTEX
  8
RIVER_STREAM_SINGLE_LINE
 10
508567.00
 20
1141846.00
  0
VERTEX
  8
RIVER_STREAM_SINGLE_LINE
 10
508580.00
 20
1141853.00
  0
VERTEX
  8
RIVER_STREAM_SINGLE_LINE
 10
508593.00
 20
1141858.00
  0
VERTEX
  8
RIVER_STREAM_SINGLE_LINE
 10
508598.00
 20
1141867.00
  0
VERTEX
  8
RIVER_STREAM_SINGLE_LINE
 10
508602.00
 20
1141876.00
  0
VERTEX
  8
RIVER_STREAM_SINGLE_LINE
 10
508613.00
 20
1141890.00
  0
VERTEX
  8
RIVER_STREAM_SINGLE_LINE
 10
508625.00
 20
1141901.00
  0
VERTEX
  8
RIVER_STREAM_SINGLE_LINE
 10
508629.00
 20
1141910.00
  0
VERTEX
  8
RIVER_STREAM_SINGLE_LINE
 10
508640.00
 20
1141944.00
  0
VERTEX
  8
RIVER_STREAM_SINGLE_LINE
 10
508642.00
 20
1141965.00
  0
VERTEX
  8
RIVER_STREAM_SINGLE_LINE
 10
508644.00
 20
1141977.00
  0
SEQEND
  8
RIVER_STREAM_SINGLE_LINE
  0
POLYLINE
  8
VIRTUAL_SEGMENT_STREAM
 66
     1
 62
     2
  6
CONTINUOUS
  0
VERTEX
  8
VIRTUAL_SEGMENT_STREAM
 10
504993.00
 20
1141838.00
  0
VERTEX
  8
VIRTUAL_SEGMENT_STREAM
 10
505005.00
 20
1141852.00
  0
SEQEND
  8
VIRTUAL_SEGMENT_STREAM
  0
POLYLINE
  8
RIVER_STREAM_SINGLE_LINE
 66
     1
 62
     5
  6
CONTINUOUS
  0
VERTEX
  8
RIVER_STREAM_SINGLE_LINE
 10
508505.00
 20
1141793.00
  0
VERTEX
  8
RIVER_STREAM_SINGLE_LINE
 10
508517.00
 20
1141796.00
  0
VERTEX
  8
RIVER_STREAM_SINGLE_LINE
 10
508533.00
 20
1141792.00
  0
VERTEX
  8
RIVER_STREAM_SINGLE_LINE
 10
508542.00
 20
1141795.00
  0
VERTEX
  8
RIVER_STREAM_SINGLE_LINE
 10
508550.00
 20
1141800.00
  0
VERTEX
  8
RIVER_STREAM_SINGLE_LINE
 10
508552.00
 20
1141807.00
  0
VERTEX
  8
RIVER_STREAM_SINGLE_LINE
 10
508547.00
 20
1141826.00
  0
VERTEX
  8
RIVER_STREAM_SINGLE_LINE
 10
508548.00
 20
1141836.00
  0
VERTEX
  8
RIVER_STREAM_SINGLE_LINE
 10
508553.00
 20
1141839.00
  0
VERTEX
  8
RIVER_STREAM_SINGLE_LINE
 10
508567.00
 20
1141846.00
  0
SEQEND
  8
RIVER_STREAM_SINGLE_LINE
  0
POLYLINE
  8
RIVER_STREAM_SINGLE_LINE
 66
     1
 62
     5
  6
CONTINUOUS
  0
VERTEX
  8
RIVER_STREAM_SINGLE_LINE
 10
508386.00
 20
1141786.00
  0
VERTEX
  8
RIVER_STREAM_SINGLE_LINE
 10
508396.00
 20
1141783.00
  0
VERTEX
  8
RIVER_STREAM_SINGLE_LINE
 10
508418.00
 20
1141772.00
  0
VERTEX
  8
RIVER_STREAM_SINGLE_LINE
 10
508437.00
 20
1141755.00
  0
VERTEX
  8
RIVER_STREAM_SINGLE_LINE
 10
508451.00
 20
1141748.00
  0
VERTEX
  8
RIVER_STREAM_SINGLE_LINE
 10
508464.00
 20
1141749.00
  0
VERTEX
  8
RIVER_STREAM_SINGLE_LINE
 10
508478.00
 20
1141755.00
  0
VERTEX
  8
RIVER_STREAM_SINGLE_LINE
 10
508488.00
 20
1141766.00
  0
VERTEX
  8
RIVER_STREAM_SINGLE_LINE
 10
508495.00
 20
1141783.00
  0
VERTEX
  8
RIVER_STREAM_SINGLE_LINE
 10
508502.00
 20
1141791.00
  0
VERTEX
  8
RIVER_STREAM_SINGLE_LINE
 10
508505.00
 20
1141793.00
  0
SEQEND
  8
RIVER_STREAM_SINGLE_LINE
  0
POLYLINE
  8
RIVER_STREAM_SINGLE_LINE
 66
     1
 62
     5
  6
CONTINUOUS
  0
VERTEX
  8
RIVER_STREAM_SINGLE_LINE
 10
507954.00
 20
1141702.00
  0
VERTEX
  8
RIVER_STREAM_SINGLE_LINE
 10
507975.00
 20
1141725.00
  0
VERTEX
  8
RIVER_STREAM_SINGLE_LINE
 10
507991.00
 20
1141745.00
  0
VERTEX
  8
RIVER_STREAM_SINGLE_LINE
 10
508003.00
 20
1141771.00
  0
VERTEX
  8
RIVER_STREAM_SINGLE_LINE
 10
508019.00
 20
1141795.00
  0
VERTEX
  8
RIVER_STREAM_SINGLE_LINE
 10
508046.00
 20
1141820.00
  0
VERTEX
  8
RIVER_STREAM_SINGLE_LINE
 10
508072.00
 20
1141838.00
  0
VERTEX
  8
RIVER_STREAM_SINGLE_LINE
 10
508106.00
 20
1141847.00
  0
VERTEX
  8
RIVER_STREAM_SINGLE_LINE
 10
508149.00
 20
1141849.00
  0
VERTEX
  8
RIVER_STREAM_SINGLE_LINE
 10
508180.00
 20
1141849.00
  0
VERTEX
  8
RIVER_STREAM_SINGLE_LINE
 10
508226.00
 20
1141841.00
  0
VERTEX
  8
RIVER_STREAM_SINGLE_LINE
 10
508264.00
 20
1141828.00
  0
VERTEX
  8
RIVER_STREAM_SINGLE_LINE
 10
508296.00
 20
1141808.00
  0
VERTEX
  8
RIVER_STREAM_SINGLE_LINE
 10
508314.00
 20
1141790.00
  0
VERTEX
  8
RIVER_STREAM_SINGLE_LINE
 10
508327.00
 20
1141785.00
  0
VERTEX
  8
RIVER_STREAM_SINGLE_LINE
 10
508339.00
 20
1141773.00
  0
VERTEX
  8
RIVER_STREAM_SINGLE_LINE
 10
508351.00
 20
1141768.00
  0
VERTEX
  8
RIVER_STREAM_SINGLE_LINE
 10
508362.00
 20
1141772.00
  0
VERTEX
  8
RIVER_STREAM_SINGLE_LINE
 10
508381.00
 20
1141786.00
  0
VERTEX
  8
RIVER_STREAM_SINGLE_LINE
 10
508386.00
 20
1141786.00
  0
SEQEND
  8
RIVER_STREAM_SINGLE_LINE
  0
POLYLINE
  8
RIVER_STREAM_SINGLE_LINE
 66
     1
 62
     5
  6
CONTINUOUS
  0
VERTEX
  8
RIVER_STREAM_SINGLE_LINE
 10
507866.00
 20
1141577.00
  0
VERTEX
  8
RIVER_STREAM_SINGLE_LINE
 10
507884.00
 20
1141615.00
  0
VERTEX
  8
RIVER_STREAM_SINGLE_LINE
 10
507896.00
 20
1141641.00
  0
VERTEX
  8
RIVER_STREAM_SINGLE_LINE
 10
507907.00
 20
1141660.00
  0
VERTEX
  8
RIVER_STREAM_SINGLE_LINE
 10
507928.00
 20
1141678.00
  0
VERTEX
  8
RIVER_STREAM_SINGLE_LINE
 10
507954.00
 20
1141702.00
  0
SEQEND
  8
RIVER_STREAM_SINGLE_LINE
  0
POLYLINE
  8
RIVER_STREAM_SINGLE_LINE
 66
     1
 62
     5
  6
CONTINUOUS
  0
VERTEX
  8
RIVER_STREAM_SINGLE_LINE
 10
504576.00
 20
1141563.00
  0
VERTEX
  8
RIVER_STREAM_SINGLE_LINE
 10
504594.00
 20
1141583.00
  0
VERTEX
  8
RIVER_STREAM_SINGLE_LINE
 10
504626.00
 20
1141612.00
  0
VERTEX
  8
RIVER_STREAM_SINGLE_LINE
 10
504655.00
 20
1141637.00
  0
VERTEX
  8
RIVER_STREAM_SINGLE_LINE
 10
504693.00
 20
1141670.00
  0
VERTEX
  8
RIVER_STREAM_SINGLE_LINE
 10
504728.00
 20
1141694.00
  0
VERTEX
  8
RIVER_STREAM_SINGLE_LINE
 10
504770.00
 20
1141715.00
  0
VERTEX
  8
RIVER_STREAM_SINGLE_LINE
 10
504804.00
 20
1141733.00
  0
VERTEX
  8
RIVER_STREAM_SINGLE_LINE
 10
504841.00
 20
1141749.00
  0
VERTEX
  8
RIVER_STREAM_SINGLE_LINE
 10
504865.00
 20
1141759.00
  0
VERTEX
  8
RIVER_STREAM_SINGLE_LINE
 10
504893.00
 20
1141780.00
  0
VERTEX
  8
RIVER_STREAM_SINGLE_LINE
 10
504918.00
 20
1141798.00
  0
VERTEX
  8
RIVER_STREAM_SINGLE_LINE
 10
504955.00
 20
1141810.00
  0
VERTEX
  8
RIVER_STREAM_SINGLE_LINE
 10
504977.00
 20
1141818.00
  0
VERTEX
  8
RIVER_STREAM_SINGLE_LINE
 10
504987.00
 20
1141831.00
  0
VERTEX
  8
RIVER_STREAM_SINGLE_LINE
 10
504993.00
 20
1141838.00
  0
SEQEND
  8
RIVER_STREAM_SINGLE_LINE
  0
POLYLINE
  8
RIVER_STREAM_SINGLE_LINE
 66
     1
 62
     5
  6
CONTINUOUS
  0
VERTEX
  8
RIVER_STREAM_SINGLE_LINE
 10
507844.00
 20
1141553.00
  0
VERTEX
  8
RIVER_STREAM_SINGLE_LINE
 10
507866.00
 20
1141577.00
  0
SEQEND
  8
RIVER_STREAM_SINGLE_LINE
  0
POLYLINE
  8
VIRTUAL_SEGMENT_STREAM
 66
     1
 62
     2
  6
CONTINUOUS
  0
VERTEX
  8
VIRTUAL_SEGMENT_STREAM
 10
504562.00
 20
1141543.00
  0
VERTEX
  8
VIRTUAL_SEGMENT_STREAM
 10
504576.00
 20
1141563.00
  0
SEQEND
  8
VIRTUAL_SEGMENT_STREAM
  0
POLYLINE
  8
VIRTUAL_SEGMENT_STREAM
 66
     1
 62
     2
  6
CONTINUOUS
  0
VERTEX
  8
VIRTUAL_SEGMENT_STREAM
 10
507832.00
 20
1141536.00
  0
VERTEX
  8
VIRTUAL_SEGMENT_STREAM
 10
507844.00
 20
1141553.00
  0
SEQEND
  8
VIRTUAL_SEGMENT_STREAM
  0
POLYLINE
  8
RIVER_STREAM_SINGLE_LINE
 66
     1
 62
     5
  6
CONTINUOUS
  0
VERTEX
  8
RIVER_STREAM_SINGLE_LINE
 10
507828.00
 20
1141530.00
  0
VERTEX
  8
RIVER_STREAM_SINGLE_LINE
 10
507832.00
 20
1141536.00
  0
SEQEND
  8
RIVER_STREAM_SINGLE_LINE
  0
POLYLINE
  8
RIVER_STREAM_SINGLE_LINE
 66
     1
 62
     5
  6
CONTINUOUS
  0
VERTEX
  8
RIVER_STREAM_SINGLE_LINE
 10
501114.00
 20
1141496.00
  0
VERTEX
  8
RIVER_STREAM_SINGLE_LINE
 10
501126.00
 20
1141524.00
  0
VERTEX
  8
RIVER_STREAM_SINGLE_LINE
 10
501138.00
 20
1141535.00
  0
VERTEX
  8
RIVER_STREAM_SINGLE_LINE
 10
501159.00
 20
1141548.00
  0
VERTEX
  8
RIVER_STREAM_SINGLE_LINE
 10
501175.00
 20
1141556.00
  0
VERTEX
  8
RIVER_STREAM_SINGLE_LINE
 10
501193.00
 20
1141570.00
  0
VERTEX
  8
RIVER_STREAM_SINGLE_LINE
 10
501212.00
 20
1141582.00
  0
VERTEX
  8
RIVER_STREAM_SINGLE_LINE
 10
501238.00
 20
1141592.00
  0
VERTEX
  8
RIVER_STREAM_SINGLE_LINE
 10
501262.00
 20
1141600.00
  0
VERTEX
  8
RIVER_STREAM_SINGLE_LINE
 10
501282.00
 20
1141609.00
  0
VERTEX
  8
RIVER_STREAM_SINGLE_LINE
 10
501300.00
 20
1141623.00
  0
VERTEX
  8
RIVER_STREAM_SINGLE_LINE
 10
501313.00
 20
1141635.00
  0
VERTEX
  8
RIVER_STREAM_SINGLE_LINE
 10
501331.00
 20
1141649.00
  0
VERTEX
  8
RIVER_STREAM_SINGLE_LINE
 10
501355.00
 20
1141654.00
  0
VERTEX
  8
RIVER_STREAM_SINGLE_LINE
 10
501388.00
 20
1141662.00
  0
VERTEX
  8
RIVER_STREAM_SINGLE_LINE
 10
501418.00
 20
1141671.00
  0
VERTEX
  8
RIVER_STREAM_SINGLE_LINE
 10
501447.00
 20
1141683.00
  0
VERTEX
  8
RIVER_STREAM_SINGLE_LINE
 10
501464.00
 20
1141694.00
  0
VERTEX
  8
RIVER_STREAM_SINGLE_LINE
 10
501481.00
 20
1141708.00
  0
VERTEX
  8
RIVER_STREAM_SINGLE_LINE
 10
501499.00
 20
1141716.00
  0
VERTEX
  8
RIVER_STREAM_SINGLE_LINE
 10
501516.00
 20
1141720.00
  0
VERTEX
  8
RIVER_STREAM_SINGLE_LINE
 10
501530.00
 20
1141725.00
  0
VERTEX
  8
RIVER_STREAM_SINGLE_LINE
 10
501540.00
 20
1141732.00
  0
VERTEX
  8
RIVER_STREAM_SINGLE_LINE
 10
501547.00
 20
1141741.00
  0
VERTEX
  8
RIVER_STREAM_SINGLE_LINE
 10
501534.00
 20
1141749.00
  0
SEQEND
  8
RIVER_STREAM_SINGLE_LINE
  0
POLYLINE
  8
RIVER_STREAM_SINGLE_LINE
 66
     1
 62
     5
  6
CONTINUOUS
  0
VERTEX
  8
RIVER_STREAM_SINGLE_LINE
 10
507760.00
 20
1141479.00
  0
VERTEX
  8
RIVER_STREAM_SINGLE_LINE
 10
507764.00
 20
1141488.00
  0
VERTEX
  8
RIVER_STREAM_SINGLE_LINE
 10
507772.00
 20
1141488.00
  0
VERTEX
  8
RIVER_STREAM_SINGLE_LINE
 10
507782.00
 20
1141486.00
  0
VERTEX
  8
RIVER_STREAM_SINGLE_LINE
 10
507791.00
 20
1141484.00
  0
VERTEX
  8
RIVER_STREAM_SINGLE_LINE
 10
507794.00
 20
1141492.00
  0
VERTEX
  8
RIVER_STREAM_SINGLE_LINE
 10
507799.00
 20
1141505.00
  0
VERTEX
  8
RIVER_STREAM_SINGLE_LINE
 10
507805.00
 20
1141513.00
  0
VERTEX
  8
RIVER_STREAM_SINGLE_LINE
 10
507816.00
 20
1141522.00
  0
VERTEX
  8
RIVER_STREAM_SINGLE_LINE
 10
507828.00
 20
1141530.00
  0
SEQEND
  8
RIVER_STREAM_SINGLE_LINE
  0
POLYLINE
  8
RIVER_STREAM_SINGLE_LINE
 66
     1
 62
     5
  6
CONTINUOUS
  0
VERTEX
  8
RIVER_STREAM_SINGLE_LINE
 10
502306.00
 20
1142088.00
  0
VERTEX
  8
RIVER_STREAM_SINGLE_LINE
 10
502313.00
 20
1142086.00
  0
VERTEX
  8
RIVER_STREAM_SINGLE_LINE
 10
502336.00
 20
1142079.00
  0
VERTEX
  8
RIVER_STREAM_SINGLE_LINE
 10
502389.00
 20
1142077.00
  0
VERTEX
  8
RIVER_STREAM_SINGLE_LINE
 10
502447.00
 20
1142076.00
  0
VERTEX
  8
RIVER_STREAM_SINGLE_LINE
 10
502489.00
 20
1142073.00
  0
VERTEX
  8
RIVER_STREAM_SINGLE_LINE
 10
502533.00
 20
1142067.00
  0
VERTEX
  8
RIVER_STREAM_SINGLE_LINE
 10
502571.00
 20
1142060.00
  0
VERTEX
  8
RIVER_STREAM_SINGLE_LINE
 10
502597.00
 20
1142052.00
  0
VERTEX
  8
RIVER_STREAM_SINGLE_LINE
 10
502631.00
 20
1142032.00
  0
VERTEX
  8
RIVER_STREAM_SINGLE_LINE
 10
502655.00
 20
1142006.00
  0
VERTEX
  8
RIVER_STREAM_SINGLE_LINE
 10
502666.00
 20
1141988.00
  0
VERTEX
  8
RIVER_STREAM_SINGLE_LINE
 10
502680.00
 20
1141957.00
  0
VERTEX
  8
RIVER_STREAM_SINGLE_LINE
 10
502684.00
 20
1141946.00
  0
VERTEX
  8
RIVER_STREAM_SINGLE_LINE
 10
502700.00
 20
1141926.00
  0
VERTEX
  8
RIVER_STREAM_SINGLE_LINE
 10
502731.00
 20
1141887.00
  0
VERTEX
  8
RIVER_STREAM_SINGLE_LINE
 10
502768.00
 20
1141839.00
  0
VERTEX
  8
RIVER_STREAM_SINGLE_LINE
 10
502799.00
 20
1141809.00
  0
VERTEX
  8
RIVER_STREAM_SINGLE_LINE
 10
502820.00
 20
1141795.00
  0
VERTEX
  8
RIVER_STREAM_SINGLE_LINE
 10
502837.00
 20
1141786.00
  0
VERTEX
  8
RIVER_STREAM_SINGLE_LINE
 10
502861.00
 20
1141780.00
  0
VERTEX
  8
RIVER_STREAM_SINGLE_LINE
 10
502876.00
 20
1141776.00
  0
VERTEX
  8
RIVER_STREAM_SINGLE_LINE
 10
502881.00
 20
1141774.00
  0
VERTEX
  8
RIVER_STREAM_SINGLE_LINE
 10
502885.00
 20
1141761.00
  0
VERTEX
  8
RIVER_STREAM_SINGLE_LINE
 10
502883.00
 20
1141743.00
  0
VERTEX
  8
RIVER_STREAM_SINGLE_LINE
 10
502885.00
 20
1141724.00
  0
VERTEX
  8
RIVER_STREAM_SINGLE_LINE
 10
502901.00
 20
1141693.00
  0
VERTEX
  8
RIVER_STREAM_SINGLE_LINE
 10
502927.00
 20
1141657.00
  0
VERTEX
  8
RIVER_STREAM_SINGLE_LINE
 10
502940.00
 20
1141638.00
  0
VERTEX
  8
RIVER_STREAM_SINGLE_LINE
 10
502953.00
 20
1141609.00
  0
VERTEX
  8
RIVER_STREAM_SINGLE_LINE
 10
502973.00
 20
1141569.00
  0
VERTEX
  8
RIVER_STREAM_SINGLE_LINE
 10
502989.00
 20
1141545.00
  0
VERTEX
  8
RIVER_STREAM_SINGLE_LINE
 10
503010.00
 20
1141523.00
  0
VERTEX
  8
RIVER_STREAM_SINGLE_LINE
 10
503031.00
 20
1141506.00
  0
VERTEX
  8
RIVER_STREAM_SINGLE_LINE
 10
503063.00
 20
1141488.00
  0
VERTEX
  8
RIVER_STREAM_SINGLE_LINE
 10
503092.00
 20
1141476.00
  0
VERTEX
  8
RIVER_STREAM_SINGLE_LINE
 10
503122.00
 20
1141463.00
  0
VERTEX
  8
RIVER_STREAM_SINGLE_LINE
 10
503150.00
 20
1141446.00
  0
VERTEX
  8
RIVER_STREAM_SINGLE_LINE
 10
503173.00
 20
1141425.00
  0
VERTEX
  8
RIVER_STREAM_SINGLE_LINE
 10
503187.00
 20
1141410.00
  0
VERTEX
  8
RIVER_STREAM_SINGLE_LINE
 10
503203.00
 20
1141387.00
  0
VERTEX
  8
RIVER_STREAM_SINGLE_LINE
 10
503215.00
 20
1141370.00
  0
VERTEX
  8
RIVER_STREAM_SINGLE_LINE
 10
503233.00
 20
1141360.00
  0
VERTEX
  8
RIVER_STREAM_SINGLE_LINE
 10
503252.00
 20
1141353.00
  0
VERTEX
  8
RIVER_STREAM_SINGLE_LINE
 10
503256.00
 20
1141353.00
  0
SEQEND
  8
RIVER_STREAM_SINGLE_LINE
  0
POLYLINE
  8
VIRTUAL_SEGMENT_STREAM
 66
     1
 62
     2
  6
CONTINUOUS
  0
VERTEX
  8
VIRTUAL_SEGMENT_STREAM
 10
503256.00
 20
1141353.00
  0
VERTEX
  8
VIRTUAL_SEGMENT_STREAM
 10
503272.00
 20
1141351.00
  0
SEQEND
  8
VIRTUAL_SEGMENT_STREAM
  0
POLYLINE
  8
RIVER_STREAM_SINGLE_LINE
 66
     1
 62
     5
  6
CONTINUOUS
  0
VERTEX
  8
RIVER_STREAM_SINGLE_LINE
 10
504394.00
 20
1141260.00
  0
VERTEX
  8
RIVER_STREAM_SINGLE_LINE
 10
504390.00
 20
1141284.00
  0
VERTEX
  8
RIVER_STREAM_SINGLE_LINE
 10
504394.00
 20
1141301.00
  0
VERTEX
  8
RIVER_STREAM_SINGLE_LINE
 10
504411.00
 20
1141319.00
  0
VERTEX
  8
RIVER_STREAM_SINGLE_LINE
 10
504431.00
 20
1141347.00
  0
VERTEX
  8
RIVER_STREAM_SINGLE_LINE
 10
504454.00
 20
1141370.00
  0
VERTEX
  8
RIVER_STREAM_SINGLE_LINE
 10
504474.00
 20
1141390.00
  0
VERTEX
  8
RIVER_STREAM_SINGLE_LINE
 10
504484.00
 20
1141406.00
  0
VERTEX
  8
RIVER_STREAM_SINGLE_LINE
 10
504493.00
 20
1141440.00
  0
VERTEX
  8
RIVER_STREAM_SINGLE_LINE
 10
504505.00
 20
1141458.00
  0
VERTEX
  8
RIVER_STREAM_SINGLE_LINE
 10
504524.00
 20
1141490.00
  0
VERTEX
  8
RIVER_STREAM_SINGLE_LINE
 10
504539.00
 20
1141507.00
  0
VERTEX
  8
RIVER_STREAM_SINGLE_LINE
 10
504554.00
 20
1141530.00
  0
VERTEX
  8
RIVER_STREAM_SINGLE_LINE
 10
504562.00
 20
1141543.00
  0
SEQEND
  8
RIVER_STREAM_SINGLE_LINE
  0
POLYLINE
  8
RIVER_STREAM_SINGLE_LINE
 66
     1
 62
     5
  6
CONTINUOUS
  0
VERTEX
  8
RIVER_STREAM_SINGLE_LINE
 10
509254.00
 20
1141124.00
  0
VERTEX
  8
RIVER_STREAM_SINGLE_LINE
 10
509265.00
 20
1141140.00
  0
VERTEX
  8
RIVER_STREAM_SINGLE_LINE
 10
509288.00
 20
1141171.00
  0
VERTEX
  8
RIVER_STREAM_SINGLE_LINE
 10
509323.00
 20
1141213.00
  0
VERTEX
  8
RIVER_STREAM_SINGLE_LINE
 10
509344.00
 20
1141251.00
  0
VERTEX
  8
RIVER_STREAM_SINGLE_LINE
 10
509363.00
 20
1141285.00
  0
VERTEX
  8
RIVER_STREAM_SINGLE_LINE
 10
509388.00
 20
1141323.00
  0
VERTEX
  8
RIVER_STREAM_SINGLE_LINE
 10
509414.00
 20
1141353.00
  0
VERTEX
  8
RIVER_STREAM_SINGLE_LINE
 10
509438.00
 20
1141384.00
  0
VERTEX
  8
RIVER_STREAM_SINGLE_LINE
 10
509468.00
 20
1141424.00
  0
VERTEX
  8
RIVER_STREAM_SINGLE_LINE
 10
509483.00
 20
1141446.00
  0
VERTEX
  8
RIVER_STREAM_SINGLE_LINE
 10
509491.00
 20
1141458.00
  0
VERTEX
  8
RIVER_STREAM_SINGLE_LINE
 10
509499.00
 20
1141485.00
  0
VERTEX
  8
RIVER_STREAM_SINGLE_LINE
 10
509507.00
 20
1141523.00
  0
VERTEX
  8
RIVER_STREAM_SINGLE_LINE
 10
509514.00
 20
1141544.00
  0
VERTEX
  8
RIVER_STREAM_SINGLE_LINE
 10
509532.00
 20
1141561.00
  0
VERTEX
  8
RIVER_STREAM_SINGLE_LINE
 10
509556.00
 20
1141577.00
  0
VERTEX
  8
RIVER_STREAM_SINGLE_LINE
 10
509583.00
 20
1141589.00
  0
VERTEX
  8
RIVER_STREAM_SINGLE_LINE
 10
509612.00
 20
1141595.00
  0
VERTEX
  8
RIVER_STREAM_SINGLE_LINE
 10
509633.00
 20
1141613.00
  0
SEQEND
  8
RIVER_STREAM_SINGLE_LINE
  0
POLYLINE
  8
BEAVER_DAM
 66
     1
 62
     2
  6
CONTINUOUS
  0
VERTEX
  8
BEAVER_DAM
 10
505208.00
 20
1141093.00
  0
VERTEX
  8
BEAVER_DAM
 10
505224.00
 20
1141096.00
  0
SEQEND
  8
BEAVER_DAM
  0
POLYLINE
  8
BEAVER_DAM
 66
     1
 62
     2
  6
CONTINUOUS
  0
VERTEX
  8
BEAVER_DAM
 10
509207.00
 20
1141080.00
  0
VERTEX
  8
BEAVER_DAM
 10
509212.00
 20
1141077.00
  0
SEQEND
  8
BEAVER_DAM
  0
POLYLINE
  8
VIRTUAL_SEGMENT_STREAM
 66
     1
 62
     2
  6
CONTINUOUS
  0
VERTEX
  8
VIRTUAL_SEGMENT_STREAM
 10
504574.00
 20
1141070.00
  0
VERTEX
  8
VIRTUAL_SEGMENT_STREAM
 10
504574.00
 20
1141103.00
  0
SEQEND
  8
VIRTUAL_SEGMENT_STREAM
  0
POLYLINE
  8
BEAVER_DAM
 66
     1
 62
     2
  6
CONTINUOUS
  0
VERTEX
  8
BEAVER_DAM
 10
508163.00
 20
1141076.00
  0
VERTEX
  8
BEAVER_DAM
 10
508164.00
 20
1141069.00
  0
SEQEND
  8
BEAVER_DAM
  0
POLYLINE
  8
BEAVER_DAM
 66
     1
 62
     2
  6
CONTINUOUS
  0
VERTEX
  8
BEAVER_DAM
 10
509212.00
 20
1141077.00
  0
VERTEX
  8
BEAVER_DAM
 10
509225.00
 20
1141068.00
  0
SEQEND
  8
BEAVER_DAM
  0
POLYLINE
  8
BEAVER_DAM
 66
     1
 62
     2
  6
CONTINUOUS
  0
VERTEX
  8
BEAVER_DAM
 10
509240.00
 20
1141058.00
  0
VERTEX
  8
BEAVER_DAM
 10
509243.00
 20
1141050.00
  0
SEQEND
  8
BEAVER_DAM
  0
POLYLINE
  8
BEAVER_DAM
 66
     1
 62
     2
  6
CONTINUOUS
  0
VERTEX
  8
BEAVER_DAM
 10
505224.00
 20
1141096.00
  0
VERTEX
  8
BEAVER_DAM
 10
505230.00
 20
1141098.00
  0
VERTEX
  8
BEAVER_DAM
 10
505233.00
 20
1141092.00
  0
VERTEX
  8
BEAVER_DAM
 10
505237.00
 20
1141077.00
  0
VERTEX
  8
BEAVER_DAM
 10
505262.00
 20
1141048.00
  0
SEQEND
  8
BEAVER_DAM
  0
POLYLINE
  8
BEAVER_DAM
 66
     1
 62
     2
  6
CONTINUOUS
  0
VERTEX
  8
BEAVER_DAM
 10
507170.00
 20
1141061.00
  0
VERTEX
  8
BEAVER_DAM
 10
507172.00
 20
1141046.00
  0
SEQEND
  8
BEAVER_DAM
  0
POLYLINE
  8
BEAVER_DAM
 66
     1
 62
     2
  6
CONTINUOUS
  0
VERTEX
  8
BEAVER_DAM
 10
507172.00
 20
1141046.00
  0
VERTEX
  8
BEAVER_DAM
 10
507173.00
 20
1141040.00
  0
SEQEND
  8
BEAVER_DAM
  0
POLYLINE
  8
RIVER_STREAM_SINGLE_LINE
 66
     1
 62
     5
  6
CONTINUOUS
  0
VERTEX
  8
RIVER_STREAM_SINGLE_LINE
 10
504489.00
 20
1141037.00
  0
VERTEX
  8
RIVER_STREAM_SINGLE_LINE
 10
504515.00
 20
1141048.00
  0
VERTEX
  8
RIVER_STREAM_SINGLE_LINE
 10
504537.00
 20
1141051.00
  0
VERTEX
  8
RIVER_STREAM_SINGLE_LINE
 10
504551.00
 20
1141061.00
  0
VERTEX
  8
RIVER_STREAM_SINGLE_LINE
 10
504574.00
 20
1141070.00
  0
SEQEND
  8
RIVER_STREAM_SINGLE_LINE
  0
POLYLINE
  8
BEAVER_DAM
 66
     1
 62
     2
  6
CONTINUOUS
  0
VERTEX
  8
BEAVER_DAM
 10
508164.00
 20
1141069.00
  0
VERTEX
  8
BEAVER_DAM
 10
508194.00
 20
1141032.00
  0
SEQEND
  8
BEAVER_DAM
  0
POLYLINE
  8
BEAVER_DAM
 66
     1
 62
     2
  6
CONTINUOUS
  0
VERTEX
  8
BEAVER_DAM
 10
505262.00
 20
1141048.00
  0
VERTEX
  8
BEAVER_DAM
 10
505294.00
 20
1141021.00
  0
SEQEND
  8
BEAVER_DAM
  0
POLYLINE
  8
RIVER_STREAM_SINGLE_LINE
 66
     1
 62
     5
  6
CONTINUOUS
  0
VERTEX
  8
RIVER_STREAM_SINGLE_LINE
 10
505234.00
 20
1141018.00
  0
VERTEX
  8
RIVER_STREAM_SINGLE_LINE
 10
505262.00
 20
1141048.00
  0
SEQEND
  8
RIVER_STREAM_SINGLE_LINE
  0
POLYLINE
  8
BEAVER_DAM
 66
     1
 62
     2
  6
CONTINUOUS
  0
VERTEX
  8
BEAVER_DAM
 10
505294.00
 20
1141021.00
  0
VERTEX
  8
BEAVER_DAM
 10
505299.00
 20
1141017.00
  0
SEQEND
  8
BEAVER_DAM
  0
POLYLINE
  8
RIVER_STREAM_SINGLE_LINE
 66
     1
 62
     5
  6
CONTINUOUS
  0
VERTEX
  8
RIVER_STREAM_SINGLE_LINE
 10
509113.00
 20
1140939.00
  0
VERTEX
  8
RIVER_STREAM_SINGLE_LINE
 10
509112.00
 20
1140952.00
  0
VERTEX
  8
RIVER_STREAM_SINGLE_LINE
 10
509111.00
 20
1140974.00
  0
VERTEX
  8
RIVER_STREAM_SINGLE_LINE
 10
509115.00
 20
1140995.00
  0
VERTEX
  8
RIVER_STREAM_SINGLE_LINE
 10
509122.00
 20
1141015.00
  0
VERTEX
  8
RIVER_STREAM_SINGLE_LINE
 10
509130.00
 20
1141042.00
  0
VERTEX
  8
RIVER_STREAM_SINGLE_LINE
 10
509138.00
 20
1141067.00
  0
VERTEX
  8
RIVER_STREAM_SINGLE_LINE
 10
509143.00
 20
1141093.00
  0
SEQEND
  8
RIVER_STREAM_SINGLE_LINE
  0
POLYLINE
  8
BEAVER_DAM
 66
     1
 62
     2
  6
CONTINUOUS
  0
VERTEX
  8
BEAVER_DAM
 10
507563.00
 20
1140941.00
  0
VERTEX
  8
BEAVER_DAM
 10
507566.00
 20
1140933.00
  0
SEQEND
  8
BEAVER_DAM
  0
POLYLINE
  8
BEAVER_DAM
 66
     1
 62
     2
  6
CONTINUOUS
  0
VERTEX
  8
BEAVER_DAM
 10
507566.00
 20
1140933.00
  0
VERTEX
  8
BEAVER_DAM
 10
507573.00
 20
1140927.00
  0
SEQEND
  8
BEAVER_DAM
  0
POLYLINE
  8
BEAVER_DAM
 66
     1
 62
     2
  6
CONTINUOUS
  0
VERTEX
  8
BEAVER_DAM
 10
505059.00
 20
1140919.00
  0
VERTEX
  8
BEAVER_DAM
 10
505069.00
 20
1140908.00
  0
SEQEND
  8
BEAVER_DAM
  0
POLYLINE
  8
BEAVER_DAM
 66
     1
 62
     2
  6
CONTINUOUS
  0
VERTEX
  8
BEAVER_DAM
 10
505069.00
 20
1140908.00
  0
VERTEX
  8
BEAVER_DAM
 10
505076.00
 20
1140899.00
  0
VERTEX
  8
BEAVER_DAM
 10
505076.00
 20
1140890.00
  0
VERTEX
  8
BEAVER_DAM
 10
505070.00
 20
1140883.00
  0
VERTEX
  8
BEAVER_DAM
 10
505069.00
 20
1140878.00
  0
SEQEND
  8
BEAVER_DAM
  0
POLYLINE
  8
RIVER_STREAM_SINGLE_LINE
 66
     1
 62
     5
  6
CONTINUOUS
  0
VERTEX
  8
RIVER_STREAM_SINGLE_LINE
 10
501146.00
 20
1140873.00
  0
VERTEX
  8
RIVER_STREAM_SINGLE_LINE
 10
501162.00
 20
1140897.00
  0
VERTEX
  8
RIVER_STREAM_SINGLE_LINE
 10
501186.00
 20
1140938.00
  0
VERTEX
  8
RIVER_STREAM_SINGLE_LINE
 10
501208.00
 20
1140967.00
  0
VERTEX
  8
RIVER_STREAM_SINGLE_LINE
 10
501227.00
 20
1140990.00
  0
VERTEX
  8
RIVER_STREAM_SINGLE_LINE
 10
501244.00
 20
1141016.00
  0
VERTEX
  8
RIVER_STREAM_SINGLE_LINE
 10
501259.00
 20
1141029.00
  0
VERTEX
  8
RIVER_STREAM_SINGLE_LINE
 10
501280.00
 20
1141049.00
  0
VERTEX
  8
RIVER_STREAM_SINGLE_LINE
 10
501293.00
 20
1141067.00
  0
VERTEX
  8
RIVER_STREAM_SINGLE_LINE
 10
501306.00
 20
1141084.00
  0
VERTEX
  8
RIVER_STREAM_SINGLE_LINE
 10
501314.00
 20
1141104.00
  0
VERTEX
  8
RIVER_STREAM_SINGLE_LINE
 10
501319.00
 20
1141122.00
  0
VERTEX
  8
RIVER_STREAM_SINGLE_LINE
 10
501319.00
 20
1141139.00
  0
VERTEX
  8
RIVER_STREAM_SINGLE_LINE
 10
501317.00
 20
1141147.00
  0
VERTEX
  8
RIVER_STREAM_SINGLE_LINE
 10
501326.00
 20
1141164.00
  0
VERTEX
  8
RIVER_STREAM_SINGLE_LINE
 10
501367.00
 20
1141195.00
  0
VERTEX
  8
RIVER_STREAM_SINGLE_LINE
 10
501394.00
 20
1141225.00
  0
VERTEX
  8
RIVER_STREAM_SINGLE_LINE
 10
501413.00
 20
1141255.00
  0
VERTEX
  8
RIVER_STREAM_SINGLE_LINE
 10
501429.00
 20
1141282.00
  0
VERTEX
  8
RIVER_STREAM_SINGLE_LINE
 10
501433.00
 20
1141300.00
  0
VERTEX
  8
RIVER_STREAM_SINGLE_LINE
 10
501425.00
 20
1141316.00
  0
VERTEX
  8
RIVER_STREAM_SINGLE_LINE
 10
501404.00
 20
1141332.00
  0
VERTEX
  8
RIVER_STREAM_SINGLE_LINE
 10
501385.00
 20
1141349.00
  0
VERTEX
  8
RIVER_STREAM_SINGLE_LINE
 10
501364.00
 20
1141360.00
  0
VERTEX
  8
RIVER_STREAM_SINGLE_LINE
 10
501355.00
 20
1141365.00
  0
VERTEX
  8
RIVER_STREAM_SINGLE_LINE
 10
501336.00
 20
1141364.00
  0
VERTEX
  8
RIVER_STREAM_SINGLE_LINE
 10
501321.00
 20
1141361.00
  0
VERTEX
  8
RIVER_STREAM_SINGLE_LINE
 10
501313.00
 20
1141344.00
  0
VERTEX
  8
RIVER_STREAM_SINGLE_LINE
 10
501306.00
 20
1141328.00
  0
VERTEX
  8
RIVER_STREAM_SINGLE_LINE
 10
501300.00
 20
1141319.00
  0
VERTEX
  8
RIVER_STREAM_SINGLE_LINE
 10
501289.00
 20
1141310.00
  0
VERTEX
  8
RIVER_STREAM_SINGLE_LINE
 10
501271.00
 20
1141306.00
  0
VERTEX
  8
RIVER_STREAM_SINGLE_LINE
 10
501248.00
 20
1141316.00
  0
VERTEX
  8
RIVER_STREAM_SINGLE_LINE
 10
501236.00
 20
1141324.00
  0
VERTEX
  8
RIVER_STREAM_SINGLE_LINE
 10
501224.00
 20
1141343.00
  0
VERTEX
  8
RIVER_STREAM_SINGLE_LINE
 10
501215.00
 20
1141363.00
  0
VERTEX
  8
RIVER_STREAM_SINGLE_LINE
 10
501206.00
 20
1141383.00
  0
VERTEX
  8
RIVER_STREAM_SINGLE_LINE
 10
501201.00
 20
1141394.00
  0
VERTEX
  8
RIVER_STREAM_SINGLE_LINE
 10
501189.00
 20
1141405.00
  0
VERTEX
  8
RIVER_STREAM_SINGLE_LINE
 10
501170.00
 20
1141411.00
  0
VERTEX
  8
RIVER_STREAM_SINGLE_LINE
 10
501154.00
 20
1141414.00
  0
VERTEX
  8
RIVER_STREAM_SINGLE_LINE
 10
501134.00
 20
1141418.00
  0
SEQEND
  8
RIVER_STREAM_SINGLE_LINE
  0
POLYLINE
  8
BEAVER_DAM
 66
     1
 62
     2
  6
CONTINUOUS
  0
VERTEX
  8
BEAVER_DAM
 10
507593.00
 20
1140870.00
  0
VERTEX
  8
BEAVER_DAM
 10
507611.00
 20
1140865.00
  0
SEQEND
  8
BEAVER_DAM
  0
POLYLINE
  8
BEAVER_DAM
 66
     1
 62
     2
  6
CONTINUOUS
  0
VERTEX
  8
BEAVER_DAM
 10
507516.00
 20
1140860.00
  0
VERTEX
  8
BEAVER_DAM
 10
507520.00
 20
1140864.00
  0
SEQEND
  8
BEAVER_DAM
  0
POLYLINE
  8
BEAVER_DAM
 66
     1
 62
     2
  6
CONTINUOUS
  0
VERTEX
  8
BEAVER_DAM
 10
507520.00
 20
1140864.00
  0
VERTEX
  8
BEAVER_DAM
 10
507535.00
 20
1140858.00
  0
SEQEND
  8
BEAVER_DAM
  0
POLYLINE
  8
RIVER_STREAM_SINGLE_LINE
 66
     1
 62
     5
  6
CONTINUOUS
  0
VERTEX
  8
RIVER_STREAM_SINGLE_LINE
 10
509127.00
 20
1140854.00
  0
VERTEX
  8
RIVER_STREAM_SINGLE_LINE
 10
509154.00
 20
1140872.00
  0
VERTEX
  8
RIVER_STREAM_SINGLE_LINE
 10
509173.00
 20
1140898.00
  0
VERTEX
  8
RIVER_STREAM_SINGLE_LINE
 10
509186.00
 20
1140918.00
  0
VERTEX
  8
RIVER_STREAM_SINGLE_LINE
 10
509197.00
 20
1140943.00
  0
VERTEX
  8
RIVER_STREAM_SINGLE_LINE
 10
509204.00
 20
1140973.00
  0
VERTEX
  8
RIVER_STREAM_SINGLE_LINE
 10
509208.00
 20
1140996.00
  0
VERTEX
  8
RIVER_STREAM_SINGLE_LINE
 10
509209.00
 20
1141006.00
  0
VERTEX
  8
RIVER_STREAM_SINGLE_LINE
 10
509208.00
 20
1141032.00
  0
VERTEX
  8
RIVER_STREAM_SINGLE_LINE
 10
509214.00
 20
1141049.00
  0
VERTEX
  8
RIVER_STREAM_SINGLE_LINE
 10
509225.00
 20
1141068.00
  0
SEQEND
  8
RIVER_STREAM_SINGLE_LINE
  0
POLYLINE
  8
RIVER_STREAM_SINGLE_LINE
 66
     1
 62
     5
  6
CONTINUOUS
  0
VERTEX
  8
RIVER_STREAM_SINGLE_LINE
 10
509127.00
 20
1140854.00
  0
VERTEX
  8
RIVER_STREAM_SINGLE_LINE
 10
509124.00
 20
1140881.00
  0
VERTEX
  8
RIVER_STREAM_SINGLE_LINE
 10
509119.00
 20
1140906.00
  0
VERTEX
  8
RIVER_STREAM_SINGLE_LINE
 10
509114.00
 20
1140932.00
  0
VERTEX
  8
RIVER_STREAM_SINGLE_LINE
 10
509113.00
 20
1140939.00
  0
SEQEND
  8
RIVER_STREAM_SINGLE_LINE
  0
POLYLINE
  8
RIVER_STREAM_SINGLE_LINE
 66
     1
 62
     5
  6
CONTINUOUS
  0
VERTEX
  8
RIVER_STREAM_SINGLE_LINE
 10
501134.00
 20
1140853.00
  0
VERTEX
  8
RIVER_STREAM_SINGLE_LINE
 10
501146.00
 20
1140873.00
  0
SEQEND
  8
RIVER_STREAM_SINGLE_LINE
  0
POLYLINE
  8
BEAVER_DAM
 66
     1
 62
     2
  6
CONTINUOUS
  0
VERTEX
  8
BEAVER_DAM
 10
505069.00
 20
1140878.00
  0
VERTEX
  8
BEAVER_DAM
 10
505069.00
 20
1140876.00
  0
VERTEX
  8
BEAVER_DAM
 10
505073.00
 20
1140870.00
  0
VERTEX
  8
BEAVER_DAM
 10
505083.00
 20
1140868.00
  0
VERTEX
  8
BEAVER_DAM
 10
505092.00
 20
1140866.00
  0
VERTEX
  8
BEAVER_DAM
 10
505101.00
 20
1140850.00
  0
SEQEND
  8
BEAVER_DAM
  0
POLYLINE
  8
BEAVER_DAM
 66
     1
 62
     2
  6
CONTINUOUS
  0
VERTEX
  8
BEAVER_DAM
 10
505101.00
 20
1140850.00
  0
VERTEX
  8
BEAVER_DAM
 10
505106.00
 20
1140840.00
  0
SEQEND
  8
BEAVER_DAM
  0
POLYLINE
  8
RIVER_STREAM_SINGLE_LINE
 66
     1
 62
     5
  6
CONTINUOUS
  0
VERTEX
  8
RIVER_STREAM_SINGLE_LINE
 10
504574.00
 20
1141103.00
  0
VERTEX
  8
RIVER_STREAM_SINGLE_LINE
 10
504602.00
 20
1141102.00
  0
VERTEX
  8
RIVER_STREAM_SINGLE_LINE
 10
504626.00
 20
1141094.00
  0
VERTEX
  8
RIVER_STREAM_SINGLE_LINE
 10
504658.00
 20
1141096.00
  0
VERTEX
  8
RIVER_STREAM_SINGLE_LINE
 10
504688.00
 20
1141105.00
  0
VERTEX
  8
RIVER_STREAM_SINGLE_LINE
 10
504716.00
 20
1141116.00
  0
VERTEX
  8
RIVER_STREAM_SINGLE_LINE
 10
504736.00
 20
1141125.00
  0
VERTEX
  8
RIVER_STREAM_SINGLE_LINE
 10
504748.00
 20
1141135.00
  0
VERTEX
  8
RIVER_STREAM_SINGLE_LINE
 10
504761.00
 20
1141144.00
  0
VERTEX
  8
RIVER_STREAM_SINGLE_LINE
 10
504770.00
 20
1141142.00
  0
VERTEX
  8
RIVER_STREAM_SINGLE_LINE
 10
504778.00
 20
1141136.00
  0
VERTEX
  8
RIVER_STREAM_SINGLE_LINE
 10
504778.00
 20
1141121.00
  0
VERTEX
  8
RIVER_STREAM_SINGLE_LINE
 10
504778.00
 20
1141107.00
  0
VERTEX
  8
RIVER_STREAM_SINGLE_LINE
 10
504778.00
 20
1141097.00
  0
VERTEX
  8
RIVER_STREAM_SINGLE_LINE
 10
504789.00
 20
1141074.00
  0
VERTEX
  8
RIVER_STREAM_SINGLE_LINE
 10
504804.00
 20
1141039.00
  0
VERTEX
  8
RIVER_STREAM_SINGLE_LINE
 10
504822.00
 20
1141000.00
  0
VERTEX
  8
RIVER_STREAM_SINGLE_LINE
 10
504831.00
 20
1140981.00
  0
VERTEX
  8
RIVER_STREAM_SINGLE_LINE
 10
504837.00
 20
1140963.00
  0
VERTEX
  8
RIVER_STREAM_SINGLE_LINE
 10
504837.00
 20
1140944.00
  0
VERTEX
  8
RIVER_STREAM_SINGLE_LINE
 10
504831.00
 20
1140924.00
  0
VERTEX
  8
RIVER_STREAM_SINGLE_LINE
 10
504825.00
 20
1140908.00
  0
VERTEX
  8
RIVER_STREAM_SINGLE_LINE
 10
504824.00
 20
1140896.00
  0
VERTEX
  8
RIVER_STREAM_SINGLE_LINE
 10
504827.00
 20
1140885.00
  0
VERTEX
  8
RIVER_STREAM_SINGLE_LINE
 10
504834.00
 20
1140876.00
  0
VERTEX
  8
RIVER_STREAM_SINGLE_LINE
 10
504848.00
 20
1140865.00
  0
VERTEX
  8
RIVER_STREAM_SINGLE_LINE
 10
504872.00
 20
1140833.00
  0
VERTEX
  8
RIVER_STREAM_SINGLE_LINE
 10
504894.00
 20
1140808.00
  0
SEQEND
  8
RIVER_STREAM_SINGLE_LINE
  0
POLYLINE
  8
RIVER_STREAM_SINGLE_LINE
 66
     1
 62
     5
  6
CONTINUOUS
  0
VERTEX
  8
RIVER_STREAM_SINGLE_LINE
 10
505038.00
 20
1140797.00
  0
VERTEX
  8
RIVER_STREAM_SINGLE_LINE
 10
505046.00
 20
1140804.00
  0
VERTEX
  8
RIVER_STREAM_SINGLE_LINE
 10
505057.00
 20
1140820.00
  0
VERTEX
  8
RIVER_STREAM_SINGLE_LINE
 10
505059.00
 20
1140838.00
  0
VERTEX
  8
RIVER_STREAM_SINGLE_LINE
 10
505060.00
 20
1140859.00
  0
VERTEX
  8
RIVER_STREAM_SINGLE_LINE
 10
505061.00
 20
1140871.00
  0
VERTEX
  8
RIVER_STREAM_SINGLE_LINE
 10
505069.00
 20
1140878.00
  0
SEQEND
  8
RIVER_STREAM_SINGLE_LINE
  0
POLYLINE
  8
RIVER_STREAM_SINGLE_LINE
 66
     1
 62
     5
  6
CONTINUOUS
  0
VERTEX
  8
RIVER_STREAM_SINGLE_LINE
 10
504894.00
 20
1140808.00
  0
VERTEX
  8
RIVER_STREAM_SINGLE_LINE
 10
504912.00
 20
1140787.00
  0
VERTEX
  8
RIVER_STREAM_SINGLE_LINE
 10
504916.00
 20
1140781.00
  0
VERTEX
  8
RIVER_STREAM_SINGLE_LINE
 10
504938.00
 20
1140747.00
  0
VERTEX
  8
RIVER_STREAM_SINGLE_LINE
 10
504958.00
 20
1140727.00
  0
VERTEX
  8
RIVER_STREAM_SINGLE_LINE
 10
504975.00
 20
1140713.00
  0
VERTEX
  8
RIVER_STREAM_SINGLE_LINE
 10
504990.00
 20
1140709.00
  0
VERTEX
  8
RIVER_STREAM_SINGLE_LINE
 10
505003.00
 20
1140712.00
  0
VERTEX
  8
RIVER_STREAM_SINGLE_LINE
 10
505011.00
 20
1140725.00
  0
VERTEX
  8
RIVER_STREAM_SINGLE_LINE
 10
505020.00
 20
1140741.00
  0
VERTEX
  8
RIVER_STREAM_SINGLE_LINE
 10
505026.00
 20
1140766.00
  0
VERTEX
  8
RIVER_STREAM_SINGLE_LINE
 10
505033.00
 20
1140792.00
  0
VERTEX
  8
RIVER_STREAM_SINGLE_LINE
 10
505038.00
 20
1140797.00
  0
SEQEND
  8
RIVER_STREAM_SINGLE_LINE
  0
POLYLINE
  8
RIVER_STREAM_SINGLE_LINE
 66
     1
 62
     5
  6
CONTINUOUS
  0
VERTEX
  8
RIVER_STREAM_SINGLE_LINE
 10
503272.00
 20
1141351.00
  0
VERTEX
  8
RIVER_STREAM_SINGLE_LINE
 10
503289.00
 20
1141349.00
  0
VERTEX
  8
RIVER_STREAM_SINGLE_LINE
 10
503308.00
 20
1141336.00
  0
VERTEX
  8
RIVER_STREAM_SINGLE_LINE
 10
503331.00
 20
1141314.00
  0
VERTEX
  8
RIVER_STREAM_SINGLE_LINE
 10
503339.00
 20
1141296.00
  0
VERTEX
  8
RIVER_STREAM_SINGLE_LINE
 10
503335.00
 20
1141284.00
  0
VERTEX
  8
RIVER_STREAM_SINGLE_LINE
 10
503329.00
 20
1141265.00
  0
VERTEX
  8
RIVER_STREAM_SINGLE_LINE
 10
503324.00
 20
1141248.00
  0
VERTEX
  8
RIVER_STREAM_SINGLE_LINE
 10
503328.00
 20
1141224.00
  0
VERTEX
  8
RIVER_STREAM_SINGLE_LINE
 10
503333.00
 20
1141196.00
  0
VERTEX
  8
RIVER_STREAM_SINGLE_LINE
 10
503340.00
 20
1141160.00
  0
VERTEX
  8
RIVER_STREAM_SINGLE_LINE
 10
503350.00
 20
1141117.00
  0
VERTEX
  8
RIVER_STREAM_SINGLE_LINE
 10
503362.00
 20
1141078.00
  0
VERTEX
  8
RIVER_STREAM_SINGLE_LINE
 10
503375.00
 20
1141051.00
  0
VERTEX
  8
RIVER_STREAM_SINGLE_LINE
 10
503394.00
 20
1141035.00
  0
VERTEX
  8
RIVER_STREAM_SINGLE_LINE
 10
503415.00
 20
1141020.00
  0
VERTEX
  8
RIVER_STREAM_SINGLE_LINE
 10
503444.00
 20
1141004.00
  0
VERTEX
  8
RIVER_STREAM_SINGLE_LINE
 10
503474.00
 20
1140992.00
  0
VERTEX
  8
RIVER_STREAM_SINGLE_LINE
 10
503494.00
 20
1140985.00
  0
VERTEX
  8
RIVER_STREAM_SINGLE_LINE
 10
503514.00
 20
1140974.00
  0
VERTEX
  8
RIVER_STREAM_SINGLE_LINE
 10
503521.00
 20
1140963.00
  0
VERTEX
  8
RIVER_STREAM_SINGLE_LINE
 10
503530.00
 20
1140951.00
  0
VERTEX
  8
RIVER_STREAM_SINGLE_LINE
 10
503534.00
 20
1140931.00
  0
VERTEX
  8
RIVER_STREAM_SINGLE_LINE
 10
503534.00
 20
1140915.00
  0
VERTEX
  8
RIVER_STREAM_SINGLE_LINE
 10
503536.00
 20
1140895.00
  0
VERTEX
  8
RIVER_STREAM_SINGLE_LINE
 10
503538.00
 20
1140868.00
  0
VERTEX
  8
RIVER_STREAM_SINGLE_LINE
 10
503542.00
 20
1140852.00
  0
VERTEX
  8
RIVER_STREAM_SINGLE_LINE
 10
503552.00
 20
1140838.00
  0
VERTEX
  8
RIVER_STREAM_SINGLE_LINE
 10
503559.00
 20
1140828.00
  0
VERTEX
  8
RIVER_STREAM_SINGLE_LINE
 10
503565.00
 20
1140815.00
  0
VERTEX
  8
RIVER_STREAM_SINGLE_LINE
 10
503568.00
 20
1140800.00
  0
VERTEX
  8
RIVER_STREAM_SINGLE_LINE
 10
503559.00
 20
1140782.00
  0
VERTEX
  8
RIVER_STREAM_SINGLE_LINE
 10
503544.00
 20
1140755.00
  0
VERTEX
  8
RIVER_STREAM_SINGLE_LINE
 10
503535.00
 20
1140734.00
  0
VERTEX
  8
RIVER_STREAM_SINGLE_LINE
 10
503528.00
 20
1140714.00
  0
VERTEX
  8
RIVER_STREAM_SINGLE_LINE
 10
503522.00
 20
1140700.00
  0
VERTEX
  8
RIVER_STREAM_SINGLE_LINE
 10
503527.00
 20
1140685.00
  0
VERTEX
  8
RIVER_STREAM_SINGLE_LINE
 10
503534.00
 20
1140660.00
  0
SEQEND
  8
RIVER_STREAM_SINGLE_LINE
  0
POLYLINE
  8
RIVER_STREAM_SINGLE_LINE
 66
     1
 62
     5
  6
CONTINUOUS
  0
VERTEX
  8
RIVER_STREAM_SINGLE_LINE
 10
508956.00
 20
1140627.00
  0
VERTEX
  8
RIVER_STREAM_SINGLE_LINE
 10
508958.00
 20
1140629.00
  0
VERTEX
  8
RIVER_STREAM_SINGLE_LINE
 10
508962.00
 20
1140636.00
  0
SEQEND
  8
RIVER_STREAM_SINGLE_LINE
  0
POLYLINE
  8
RIVER_STREAM_SINGLE_LINE
 66
     1
 62
     5
  6
CONTINUOUS
  0
VERTEX
  8
RIVER_STREAM_SINGLE_LINE
 10
508954.00
 20
1140624.00
  0
VERTEX
  8
RIVER_STREAM_SINGLE_LINE
 10
508956.00
 20
1140627.00
  0
SEQEND
  8
RIVER_STREAM_SINGLE_LINE
  0
POLYLINE
  8
BEAVER_DAM
 66
     1
 62
     2
  6
CONTINUOUS
  0
VERTEX
  8
BEAVER_DAM
 10
505871.00
 20
1140628.00
  0
VERTEX
  8
BEAVER_DAM
 10
505871.00
 20
1140613.00
  0
SEQEND
  8
BEAVER_DAM
  0
POLYLINE
  8
VIRTUAL_SEGMENT_STREAM
 66
     1
 62
     2
  6
CONTINUOUS
  0
VERTEX
  8
VIRTUAL_SEGMENT_STREAM
 10
508942.00
 20
1140596.00
  0
VERTEX
  8
VIRTUAL_SEGMENT_STREAM
 10
508954.00
 20
1140624.00
  0
SEQEND
  8
VIRTUAL_SEGMENT_STREAM
  0
POLYLINE
  8
BEAVER_DAM
 66
     1
 62
     2
  6
CONTINUOUS
  0
VERTEX
  8
BEAVER_DAM
 10
500587.00
 20
1140570.00
  0
VERTEX
  8
BEAVER_DAM
 10
500587.00
 20
1140550.00
  0
SEQEND
  8
BEAVER_DAM
  0
POLYLINE
  8
BEAVER_DAM
 66
     1
 62
     2
  6
CONTINUOUS
  0
VERTEX
  8
BEAVER_DAM
 10
500544.00
 20
1140534.00
  0
VERTEX
  8
BEAVER_DAM
 10
500553.00
 20
1140529.00
  0
SEQEND
  8
BEAVER_DAM
  0
POLYLINE
  8
BEAVER_DAM
 66
     1
 62
     2
  6
CONTINUOUS
  0
VERTEX
  8
BEAVER_DAM
 10
500603.00
 20
1140511.00
  0
VERTEX
  8
BEAVER_DAM
 10
500604.00
 20
1140506.00
  0
SEQEND
  8
BEAVER_DAM
  0
POLYLINE
  8
BEAVER_DAM
 66
     1
 62
     2
  6
CONTINUOUS
  0
VERTEX
  8
BEAVER_DAM
 10
500553.00
 20
1140529.00
  0
VERTEX
  8
BEAVER_DAM
 10
500570.00
 20
1140504.00
  0
SEQEND
  8
BEAVER_DAM
  0
POLYLINE
  8
BEAVER_DAM
 66
     1
 62
     2
  6
CONTINUOUS
  0
VERTEX
  8
BEAVER_DAM
 10
500570.00
 20
1140504.00
  0
VERTEX
  8
BEAVER_DAM
 10
500575.00
 20
1140496.00
  0
SEQEND
  8
BEAVER_DAM
  0
POLYLINE
  8
BEAVER_DAM
 66
     1
 62
     2
  6
CONTINUOUS
  0
VERTEX
  8
BEAVER_DAM
 10
500575.00
 20
1140496.00
  0
VERTEX
  8
BEAVER_DAM
 10
500578.00
 20
1140494.00
  0
SEQEND
  8
BEAVER_DAM
  0
POLYLINE
  8
RIVER_STREAM_SINGLE_LINE
 66
     1
 62
     5
  6
CONTINUOUS
  0
VERTEX
  8
RIVER_STREAM_SINGLE_LINE
 10
508825.00
 20
1140453.00
  0
VERTEX
  8
RIVER_STREAM_SINGLE_LINE
 10
508837.00
 20
1140491.00
  0
VERTEX
  8
RIVER_STREAM_SINGLE_LINE
 10
508844.00
 20
1140505.00
  0
VERTEX
  8
RIVER_STREAM_SINGLE_LINE
 10
508861.00
 20
1140520.00
  0
VERTEX
  8
RIVER_STREAM_SINGLE_LINE
 10
508876.00
 20
1140541.00
  0
VERTEX
  8
RIVER_STREAM_SINGLE_LINE
 10
508890.00
 20
1140563.00
  0
VERTEX
  8
RIVER_STREAM_SINGLE_LINE
 10
508902.00
 20
1140574.00
  0
VERTEX
  8
RIVER_STREAM_SINGLE_LINE
 10
508918.00
 20
1140581.00
  0
VERTEX
  8
RIVER_STREAM_SINGLE_LINE
 10
508939.00
 20
1140590.00
  0
VERTEX
  8
RIVER_STREAM_SINGLE_LINE
 10
508942.00
 20
1140596.00
  0
SEQEND
  8
RIVER_STREAM_SINGLE_LINE
  0
POLYLINE
  8
RIVER_STREAM_SINGLE_LINE
 66
     1
 62
     5
  6
CONTINUOUS
  0
VERTEX
  8
RIVER_STREAM_SINGLE_LINE
 10
502271.00
 20
1140452.00
  0
VERTEX
  8
RIVER_STREAM_SINGLE_LINE
 10
502276.00
 20
1140452.00
  0
VERTEX
  8
RIVER_STREAM_SINGLE_LINE
 10
502295.00
 20
1140458.00
  0
VERTEX
  8
RIVER_STREAM_SINGLE_LINE
 10
502314.00
 20
1140463.00
  0
VERTEX
  8
RIVER_STREAM_SINGLE_LINE
 10
502334.00
 20
1140458.00
  0
VERTEX
  8
RIVER_STREAM_SINGLE_LINE
 10
502348.00
 20
1140453.00
  0
VERTEX
  8
RIVER_STREAM_SINGLE_LINE
 10
502365.00
 20
1140447.00
  0
VERTEX
  8
RIVER_STREAM_SINGLE_LINE
 10
502374.00
 20
1140438.00
  0
VERTEX
  8
RIVER_STREAM_SINGLE_LINE
 10
502389.00
 20
1140417.00
  0
SEQEND
  8
RIVER_STREAM_SINGLE_LINE
  0
POLYLINE
  8
BEAVER_DAM
 66
     1
 62
     2
  6
CONTINUOUS
  0
VERTEX
  8
BEAVER_DAM
 10
507454.00
 20
1140409.00
  0
VERTEX
  8
BEAVER_DAM
 10
507449.00
 20
1140394.00
  0
SEQEND
  8
BEAVER_DAM
  0
POLYLINE
  8
RIVER_STREAM_SINGLE_LINE
 66
     1
 62
     5
  6
CONTINUOUS
  0
VERTEX
  8
RIVER_STREAM_SINGLE_LINE
 10
507457.00
 20
1140356.00
  0
VERTEX
  8
RIVER_STREAM_SINGLE_LINE
 10
507481.00
 20
1140368.00
  0
VERTEX
  8
RIVER_STREAM_SINGLE_LINE
 10
507489.00
 20
1140377.00
  0
VERTEX
  8
RIVER_STREAM_SINGLE_LINE
 10
507494.00
 20
1140395.00
  0
VERTEX
  8
RIVER_STREAM_SINGLE_LINE
 10
507510.00
 20
1140430.00
  0
VERTEX
  8
RIVER_STREAM_SINGLE_LINE
 10
507523.00
 20
1140453.00
  0
VERTEX
  8
RIVER_STREAM_SINGLE_LINE
 10
507532.00
 20
1140477.00
  0
VERTEX
  8
RIVER_STREAM_SINGLE_LINE
 10
507532.00
 20
1140495.00
  0
VERTEX
  8
RIVER_STREAM_SINGLE_LINE
 10
507521.00
 20
1140527.00
  0
VERTEX
  8
RIVER_STREAM_SINGLE_LINE
 10
507513.00
 20
1140560.00
  0
VERTEX
  8
RIVER_STREAM_SINGLE_LINE
 10
507507.00
 20
1140579.00
  0
VERTEX
  8
RIVER_STREAM_SINGLE_LINE
 10
507505.00
 20
1140593.00
  0
VERTEX
  8
RIVER_STREAM_SINGLE_LINE
 10
507512.00
 20
1140623.00
  0
VERTEX
  8
RIVER_STREAM_SINGLE_LINE
 10
507516.00
 20
1140662.00
  0
VERTEX
  8
RIVER_STREAM_SINGLE_LINE
 10
507516.00
 20
1140691.00
  0
VERTEX
  8
RIVER_STREAM_SINGLE_LINE
 10
507514.00
 20
1140711.00
  0
VERTEX
  8
RIVER_STREAM_SINGLE_LINE
 10
507515.00
 20
1140725.00
  0
VERTEX
  8
RIVER_STREAM_SINGLE_LINE
 10
507519.00
 20
1140731.00
  0
VERTEX
  8
RIVER_STREAM_SINGLE_LINE
 10
507527.00
 20
1140742.00
  0
SEQEND
  8
RIVER_STREAM_SINGLE_LINE
  0
POLYLINE
  8
BEAVER_DAM
 66
     1
 62
     2
  6
CONTINUOUS
  0
VERTEX
  8
BEAVER_DAM
 10
507449.00
 20
1140394.00
  0
VERTEX
  8
BEAVER_DAM
 10
507455.00
 20
1140371.00
  0
VERTEX
  8
BEAVER_DAM
 10
507457.00
 20
1140356.00
  0
SEQEND
  8
BEAVER_DAM
  0
POLYLINE
  8
BEAVER_DAM
 66
     1
 62
     2
  6
CONTINUOUS
  0
VERTEX
  8
BEAVER_DAM
 10
507457.00
 20
1140356.00
  0
VERTEX
  8
BEAVER_DAM
 10
507463.00
 20
1140328.00
  0
SEQEND
  8
BEAVER_DAM
  0
POLYLINE
  8
BEAVER_DAM
 66
     1
 62
     2
  6
CONTINUOUS
  0
VERTEX
  8
BEAVER_DAM
 10
507463.00
 20
1140328.00
  0
VERTEX
  8
BEAVER_DAM
 10
507470.00
 20
1140322.00
  0
SEQEND
  8
BEAVER_DAM
  0
POLYLINE
  8
VIRTUAL_SEGMENT_STREAM
 66
     1
 62
     2
  6
CONTINUOUS
  0
VERTEX
  8
VIRTUAL_SEGMENT_STREAM
 10
509130.00
 20
1140238.00
  0
VERTEX
  8
VIRTUAL_SEGMENT_STREAM
 10
509146.00
 20
1140242.00
  0
SEQEND
  8
VIRTUAL_SEGMENT_STREAM
  0
POLYLINE
  8
RIVER_STREAM_SINGLE_LINE
 66
     1
 62
     5
  6
CONTINUOUS
  0
VERTEX
  8
RIVER_STREAM_SINGLE_LINE
 10
500386.00
 20
1140235.00
  0
VERTEX
  8
RIVER_STREAM_SINGLE_LINE
 10
500395.00
 20
1140270.00
  0
VERTEX
  8
RIVER_STREAM_SINGLE_LINE
 10
500406.00
 20
1140304.00
  0
VERTEX
  8
RIVER_STREAM_SINGLE_LINE
 10
500414.00
 20
1140335.00
  0
VERTEX
  8
RIVER_STREAM_SINGLE_LINE
 10
500426.00
 20
1140355.00
  0
VERTEX
  8
RIVER_STREAM_SINGLE_LINE
 10
500439.00
 20
1140374.00
  0
VERTEX
  8
RIVER_STREAM_SINGLE_LINE
 10
500453.00
 20
1140386.00
  0
VERTEX
  8
RIVER_STREAM_SINGLE_LINE
 10
500465.00
 20
1140394.00
  0
VERTEX
  8
RIVER_STREAM_SINGLE_LINE
 10
500476.00
 20
1140400.00
  0
VERTEX
  8
RIVER_STREAM_SINGLE_LINE
 10
500493.00
 20
1140414.00
  0
VERTEX
  8
RIVER_STREAM_SINGLE_LINE
 10
500508.00
 20
1140427.00
  0
VERTEX
  8
RIVER_STREAM_SINGLE_LINE
 10
500523.00
 20
1140450.00
  0
VERTEX
  8
RIVER_STREAM_SINGLE_LINE
 10
500536.00
 20
1140470.00
  0
VERTEX
  8
RIVER_STREAM_SINGLE_LINE
 10
500548.00
 20
1140484.00
  0
VERTEX
  8
RIVER_STREAM_SINGLE_LINE
 10
500559.00
 20
1140494.00
  0
VERTEX
  8
RIVER_STREAM_SINGLE_LINE
 10
500570.00
 20
1140504.00
  0
SEQEND
  8
RIVER_STREAM_SINGLE_LINE
  0
POLYLINE
  8
RIVER_STREAM_SINGLE_LINE
 66
     1
 62
     5
  6
CONTINUOUS
  0
VERTEX
  8
RIVER_STREAM_SINGLE_LINE
 10
500000.00
 20
1140472.00
  0
VERTEX
  8
RIVER_STREAM_SINGLE_LINE
 10
500017.00
 20
1140466.00
  0
VERTEX
  8
RIVER_STREAM_SINGLE_LINE
 10
500035.00
 20
1140457.00
  0
VERTEX
  8
RIVER_STREAM_SINGLE_LINE
 10
500045.00
 20
1140440.00
  0
VERTEX
  8
RIVER_STREAM_SINGLE_LINE
 10
500057.00
 20
1140421.00
  0
VERTEX
  8
RIVER_STREAM_SINGLE_LINE
 10
500073.00
 20
1140409.00
  0
VERTEX
  8
RIVER_STREAM_SINGLE_LINE
 10
500097.00
 20
1140399.00
  0
VERTEX
  8
RIVER_STREAM_SINGLE_LINE
 10
500123.00
 20
1140388.00
  0
VERTEX
  8
RIVER_STREAM_SINGLE_LINE
 10
500138.00
 20
1140377.00
  0
VERTEX
  8
RIVER_STREAM_SINGLE_LINE
 10
500154.00
 20
1140356.00
  0
VERTEX
  8
RIVER_STREAM_SINGLE_LINE
 10
500183.00
 20
1140337.00
  0
VERTEX
  8
RIVER_STREAM_SINGLE_LINE
 10
500215.00
 20
1140322.00
  0
VERTEX
  8
RIVER_STREAM_SINGLE_LINE
 10
500248.00
 20
1140308.00
  0
VERTEX
  8
RIVER_STREAM_SINGLE_LINE
 10
500268.00
 20
1140304.00
  0
VERTEX
  8
RIVER_STREAM_SINGLE_LINE
 10
500292.00
 20
1140295.00
  0
VERTEX
  8
RIVER_STREAM_SINGLE_LINE
 10
500315.00
 20
1140283.00
  0
VERTEX
  8
RIVER_STREAM_SINGLE_LINE
 10
500330.00
 20
1140268.00
  0
VERTEX
  8
RIVER_STREAM_SINGLE_LINE
 10
500346.00
 20
1140251.00
  0
VERTEX
  8
RIVER_STREAM_SINGLE_LINE
 10
500359.00
 20
1140243.00
  0
VERTEX
  8
RIVER_STREAM_SINGLE_LINE
 10
500374.00
 20
1140234.00
  0
VERTEX
  8
RIVER_STREAM_SINGLE_LINE
 10
500386.00
 20
1140235.00
  0
SEQEND
  8
RIVER_STREAM_SINGLE_LINE
  0
POLYLINE
  8
RIVER_STREAM_SINGLE_LINE
 66
     1
 62
     5
  6
CONTINUOUS
  0
VERTEX
  8
RIVER_STREAM_SINGLE_LINE
 10
501893.00
 20
1140210.00
  0
VERTEX
  8
RIVER_STREAM_SINGLE_LINE
 10
501911.00
 20
1140216.00
  0
VERTEX
  8
RIVER_STREAM_SINGLE_LINE
 10
501916.00
 20
1140220.00
  0
SEQEND
  8
RIVER_STREAM_SINGLE_LINE
  0
POLYLINE
  8
RIVER_STREAM_SINGLE_LINE
 66
     1
 62
     5
  6
CONTINUOUS
  0
VERTEX
  8
RIVER_STREAM_SINGLE_LINE
 10
501500.00
 20
1140135.00
  0
VERTEX
  8
RIVER_STREAM_SINGLE_LINE
 10
501489.00
 20
1140136.00
  0
VERTEX
  8
RIVER_STREAM_SINGLE_LINE
 10
501469.00
 20
1140140.00
  0
VERTEX
  8
RIVER_STREAM_SINGLE_LINE
 10
501456.00
 20
1140148.00
  0
VERTEX
  8
RIVER_STREAM_SINGLE_LINE
 10
501448.00
 20
1140170.00
  0
VERTEX
  8
RIVER_STREAM_SINGLE_LINE
 10
501442.00
 20
1140200.00
  0
VERTEX
  8
RIVER_STREAM_SINGLE_LINE
 10
501444.00
 20
1140222.00
  0
VERTEX
  8
RIVER_STREAM_SINGLE_LINE
 10
501451.00
 20
1140242.00
  0
VERTEX
  8
RIVER_STREAM_SINGLE_LINE
 10
501470.00
 20
1140259.00
  0
VERTEX
  8
RIVER_STREAM_SINGLE_LINE
 10
501495.00
 20
1140280.00
  0
VERTEX
  8
RIVER_STREAM_SINGLE_LINE
 10
501516.00
 20
1140299.00
  0
VERTEX
  8
RIVER_STREAM_SINGLE_LINE
 10
501540.00
 20
1140316.00
  0
VERTEX
  8
RIVER_STREAM_SINGLE_LINE
 10
501556.00
 20
1140322.00
  0
VERTEX
  8
RIVER_STREAM_SINGLE_LINE
 10
501571.00
 20
1140324.00
  0
VERTEX
  8
RIVER_STREAM_SINGLE_LINE
 10
501583.00
 20
1140320.00
  0
SEQEND
  8
RIVER_STREAM_SINGLE_LINE
  0
POLYLINE
  8
RIVER_STREAM_SINGLE_LINE
 66
     1
 62
     5
  6
CONTINUOUS
  0
VERTEX
  8
RIVER_STREAM_SINGLE_LINE
 10
508529.00
 20
1140097.00
  0
VERTEX
  8
RIVER_STREAM_SINGLE_LINE
 10
508531.00
 20
1140144.00
  0
VERTEX
  8
RIVER_STREAM_SINGLE_LINE
 10
508532.00
 20
1140155.00
  0
VERTEX
  8
RIVER_STREAM_SINGLE_LINE
 10
508554.00
 20
1140175.00
  0
VERTEX
  8
RIVER_STREAM_SINGLE_LINE
 10
508581.00
 20
1140200.00
  0
VERTEX
  8
RIVER_STREAM_SINGLE_LINE
 10
508604.00
 20
1140221.00
  0
VERTEX
  8
RIVER_STREAM_SINGLE_LINE
 10
508623.00
 20
1140239.00
  0
VERTEX
  8
RIVER_STREAM_SINGLE_LINE
 10
508651.00
 20
1140245.00
  0
VERTEX
  8
RIVER_STREAM_SINGLE_LINE
 10
508675.00
 20
1140252.00
  0
VERTEX
  8
RIVER_STREAM_SINGLE_LINE
 10
508695.00
 20
1140261.00
  0
VERTEX
  8
RIVER_STREAM_SINGLE_LINE
 10
508700.00
 20
1140270.00
  0
VERTEX
  8
RIVER_STREAM_SINGLE_LINE
 10
508702.00
 20
1140284.00
  0
VERTEX
  8
RIVER_STREAM_SINGLE_LINE
 10
508703.00
 20
1140299.00
  0
VERTEX
  8
RIVER_STREAM_SINGLE_LINE
 10
508719.00
 20
1140309.00
  0
VERTEX
  8
RIVER_STREAM_SINGLE_LINE
 10
508739.00
 20
1140327.00
  0
VERTEX
  8
RIVER_STREAM_SINGLE_LINE
 10
508761.00
 20
1140347.00
  0
VERTEX
  8
RIVER_STREAM_SINGLE_LINE
 10
508783.00
 20
1140370.00
  0
VERTEX
  8
RIVER_STREAM_SINGLE_LINE
 10
508799.00
 20
1140383.00
  0
VERTEX
  8
RIVER_STREAM_SINGLE_LINE
 10
508805.00
 20
1140397.00
  0
VERTEX
  8
RIVER_STREAM_SINGLE_LINE
 10
508805.00
 20
1140408.00
  0
SEQEND
  8
RIVER_STREAM_SINGLE_LINE
  0
POLYLINE
  8
RIVER_STREAM_SINGLE_LINE
 66
     1
 62
     5
  6
CONTINUOUS
  0
VERTEX
  8
RIVER_STREAM_SINGLE_LINE
 10
501578.00
 20
1140093.00
  0
VERTEX
  8
RIVER_STREAM_SINGLE_LINE
 10
501595.00
 20
1140103.00
  0
VERTEX
  8
RIVER_STREAM_SINGLE_LINE
 10
501614.00
 20
1140116.00
  0
SEQEND
  8
RIVER_STREAM_SINGLE_LINE
  0
POLYLINE
  8
RIVER_STREAM_SINGLE_LINE
 66
     1
 62
     5
  6
CONTINUOUS
  0
VERTEX
  8
RIVER_STREAM_SINGLE_LINE
 10
501578.00
 20
1140093.00
  0
VERTEX
  8
RIVER_STREAM_SINGLE_LINE
 10
501556.00
 20
1140105.00
  0
VERTEX
  8
RIVER_STREAM_SINGLE_LINE
 10
501542.00
 20
1140120.00
  0
VERTEX
  8
RIVER_STREAM_SINGLE_LINE
 10
501524.00
 20
1140127.00
  0
VERTEX
  8
RIVER_STREAM_SINGLE_LINE
 10
501507.00
 20
1140134.00
  0
VERTEX
  8
RIVER_STREAM_SINGLE_LINE
 10
501500.00
 20
1140135.00
  0
SEQEND
  8
RIVER_STREAM_SINGLE_LINE
  0
POLYLINE
  8
BEAVER_DAM
 66
     1
 62
     2
  6
CONTINUOUS
  0
VERTEX
  8
BEAVER_DAM
 10
508353.00
 20
1140042.00
  0
VERTEX
  8
BEAVER_DAM
 10
508357.00
 20
1140039.00
  0
SEQEND
  8
BEAVER_DAM
  0
POLYLINE
  8
RIVER_STREAM_SINGLE_LINE
 66
     1
 62
     5
  6
CONTINUOUS
  0
VERTEX
  8
RIVER_STREAM_SINGLE_LINE
 10
508548.00
 20
1140057.00
  0
VERTEX
  8
RIVER_STREAM_SINGLE_LINE
 10
508566.00
 20
1140054.00
  0
VERTEX
  8
RIVER_STREAM_SINGLE_LINE
 10
508586.00
 20
1140045.00
  0
VERTEX
  8
RIVER_STREAM_SINGLE_LINE
 10
508599.00
 20
1140032.00
  0
VERTEX
  8
RIVER_STREAM_SINGLE_LINE
 10
508612.00
 20
1140020.00
  0
VERTEX
  8
RIVER_STREAM_SINGLE_LINE
 10
508632.00
 20
1140022.00
  0
VERTEX
  8
RIVER_STREAM_SINGLE_LINE
 10
508656.00
 20
1140029.00
  0
VERTEX
  8
RIVER_STREAM_SINGLE_LINE
 10
508676.00
 20
1140038.00
  0
VERTEX
  8
RIVER_STREAM_SINGLE_LINE
 10
508711.00
 20
1140049.00
  0
VERTEX
  8
RIVER_STREAM_SINGLE_LINE
 10
508751.00
 20
1140062.00
  0
VERTEX
  8
RIVER_STREAM_SINGLE_LINE
 10
508795.00
 20
1140081.00
  0
VERTEX
  8
RIVER_STREAM_SINGLE_LINE
 10
508817.00
 20
1140091.00
  0
VERTEX
  8
RIVER_STREAM_SINGLE_LINE
 10
508845.00
 20
1140096.00
  0
VERTEX
  8
RIVER_STREAM_SINGLE_LINE
 10
508874.00
 20
1140106.00
  0
VERTEX
  8
RIVER_STREAM_SINGLE_LINE
 10
508918.00
 20
1140123.00
  0
VERTEX
  8
RIVER_STREAM_SINGLE_LINE
 10
508960.00
 20
1140138.00
  0
VERTEX
  8
RIVER_STREAM_SINGLE_LINE
 10
508990.00
 20
1140157.00
  0
VERTEX
  8
RIVER_STREAM_SINGLE_LINE
 10
509019.00
 20
1140173.00
  0
VERTEX
  8
RIVER_STREAM_SINGLE_LINE
 10
509048.00
 20
1140190.00
  0
VERTEX
  8
RIVER_STREAM_SINGLE_LINE
 10
509074.00
 20
1140208.00
  0
VERTEX
  8
RIVER_STREAM_SINGLE_LINE
 10
509097.00
 20
1140227.00
  0
VERTEX
  8
RIVER_STREAM_SINGLE_LINE
 10
509115.00
 20
1140233.00
  0
VERTEX
  8
RIVER_STREAM_SINGLE_LINE
 10
509130.00
 20
1140238.00
  0
SEQEND
  8
RIVER_STREAM_SINGLE_LINE
  0
POLYLINE
  8
RIVER_STREAM_SINGLE_LINE
 66
     1
 62
     5
  6
CONTINUOUS
  0
VERTEX
  8
RIVER_STREAM_SINGLE_LINE
 10
500341.00
 20
1140000.00
  0
VERTEX
  8
RIVER_STREAM_SINGLE_LINE
 10
500338.00
 20
1140063.00
  0
VERTEX
  8
RIVER_STREAM_SINGLE_LINE
 10
500338.00
 20
1140075.00
  0
VERTEX
  8
RIVER_STREAM_SINGLE_LINE
 10
500346.00
 20
1140088.00
  0
VERTEX
  8
RIVER_STREAM_SINGLE_LINE
 10
500355.00
 20
1140111.00
  0
VERTEX
  8
RIVER_STREAM_SINGLE_LINE
 10
500360.00
 20
1140142.00
  0
VERTEX
  8
RIVER_STREAM_SINGLE_LINE
 10
500368.00
 20
1140166.00
  0
VERTEX
  8
RIVER_STREAM_SINGLE_LINE
 10
500373.00
 20
1140182.00
  0
VERTEX
  8
RIVER_STREAM_SINGLE_LINE
 10
500375.00
 20
1140197.00
  0
VERTEX
  8
RIVER_STREAM_SINGLE_LINE
 10
500375.00
 20
1140208.00
  0
VERTEX
  8
RIVER_STREAM_SINGLE_LINE
 10
500382.00
 20
1140221.00
  0
VERTEX
  8
RIVER_STREAM_SINGLE_LINE
 10
500386.00
 20
1140235.00
  0
SEQEND
  8
RIVER_STREAM_SINGLE_LINE
  0
POLYLINE
  8
RIVER_STREAM_SINGLE_LINE
 66
     1
 62
     5
  6
CONTINUOUS
  0
VERTEX
  8
RIVER_STREAM_SINGLE_LINE
 10
501432.00
 20
1140000.00
  0
VERTEX
  8
RIVER_STREAM_SINGLE_LINE
 10
501447.00
 20
1140015.00
  0
VERTEX
  8
RIVER_STREAM_SINGLE_LINE
 10
501473.00
 20
1140030.00
  0
VERTEX
  8
RIVER_STREAM_SINGLE_LINE
 10
501497.00
 20
1140045.00
  0
VERTEX
  8
RIVER_STREAM_SINGLE_LINE
 10
501524.00
 20
1140062.00
  0
VERTEX
  8
RIVER_STREAM_SINGLE_LINE
 10
501544.00
 20
1140075.00
  0
VERTEX
  8
RIVER_STREAM_SINGLE_LINE
 10
501557.00
 20
1140081.00
  0
VERTEX
  8
RIVER_STREAM_SINGLE_LINE
 10
501578.00
 20
1140093.00
  0
SEQEND
  8
RIVER_STREAM_SINGLE_LINE
  0
POLYLINE
  8
BEAVER_DAM
 66
     1
 62
     2
  6
CONTINUOUS
  0
VERTEX
  8
BEAVER_DAM
 10
508357.00
 20
1140039.00
  0
VERTEX
  8
BEAVER_DAM
 10
508359.00
 20
1140037.00
  0
VERTEX
  8
BEAVER_DAM
 10
508369.00
 20
1140000.00
  0
SEQEND
  8
BEAVER_DAM
  0
POLYLINE
  8
RIVER_STREAM_SINGLE_LINE
 66
     1
 62
     5
  6
CONTINUOUS
  0
VERTEX
  8
RIVER_STREAM_SINGLE_LINE
 10
508423.00
 20
1140000.00
  0
VERTEX
  8
RIVER_STREAM_SINGLE_LINE
 10
508449.00
 20
1140022.00
  0
VERTEX
  8
RIVER_STREAM_SINGLE_LINE
 10
508483.00
 20
1140033.00
  0
VERTEX
  8
RIVER_STREAM_SINGLE_LINE
 10
508518.00
 20
1140044.00
  0
VERTEX
  8
RIVER_STREAM_SINGLE_LINE
 10
508542.00
 20
1140051.00
  0
VERTEX
  8
RIVER_STREAM_SINGLE_LINE
 10
508548.00
 20
1140057.00
  0
SEQEND
  8
RIVER_STREAM_SINGLE_LINE
  0
POLYLINE
  8
RIVER_STREAM_SINGLE_LINE
 66
     1
 62
     5
  6
CONTINUOUS
  0
VERTEX
  8
RIVER_STREAM_SINGLE_LINE
 10
509146.00
 20
1140242.00
  0
VERTEX
  8
RIVER_STREAM_SINGLE_LINE
 10
509155.00
 20
1140243.00
  0
VERTEX
  8
RIVER_STREAM_SINGLE_LINE
 10
509177.00
 20
1140240.00
  0
VERTEX
  8
RIVER_STREAM_SINGLE_LINE
 10
509196.00
 20
1140236.00
  0
VERTEX
  8
RIVER_STREAM_SINGLE_LINE
 10
509214.00
 20
1140217.00
  0
VERTEX
  8
RIVER_STREAM_SINGLE_LINE
 10
509229.00
 20
1140197.00
  0
VERTEX
  8
RIVER_STREAM_SINGLE_LINE
 10
509242.00
 20
1140177.00
  0
VERTEX
  8
RIVER_STREAM_SINGLE_LINE
 10
509252.00
 20
1140158.00
  0
VERTEX
  8
RIVER_STREAM_SINGLE_LINE
 10
509263.00
 20
1140132.00
  0
VERTEX
  8
RIVER_STREAM_SINGLE_LINE
 10
509269.00
 20
1140110.00
  0
VERTEX
  8
RIVER_STREAM_SINGLE_LINE
 10
509271.00
 20
1140088.00
  0
VERTEX
  8
RIVER_STREAM_SINGLE_LINE
 10
509272.00
 20
1140064.00
  0
VERTEX
  8
RIVER_STREAM_SINGLE_LINE
 10
509277.00
 20
1140038.00
  0
VERTEX
  8
RIVER_STREAM_SINGLE_LINE
 10
509281.00
 20
1140000.00
  0
SEQEND
  8
RIVER_STREAM_SINGLE_LINE
  0
POLYLINE
  8
RIVER_STREAM_SINGLE_LINE
 66
     1
 62
     5
  6
CONTINUOUS
  0
VERTEX
  8
RIVER_STREAM_SINGLE_LINE
 10
509430.00
 20
1140000.00
  0
VERTEX
  8
RIVER_STREAM_SINGLE_LINE
 10
509433.00
 20
1140025.00
  0
VERTEX
  8
RIVER_STREAM_SINGLE_LINE
 10
509447.00
 20
1140044.00
  0
VERTEX
  8
RIVER_STREAM_SINGLE_LINE
 10
509465.00
 20
1140065.00
  0
VERTEX
  8
RIVER_STREAM_SINGLE_LINE
 10
509479.00
 20
1140092.00
  0
VERTEX
  8
RIVER_STREAM_SINGLE_LINE
 10
509487.00
 20
1140106.00
  0
VERTEX
  8
RIVER_STREAM_SINGLE_LINE
 10
509510.00
 20
1140120.00
  0
VERTEX
  8
RIVER_STREAM_SINGLE_LINE
 10
509534.00
 20
1140134.00
  0
VERTEX
  8
RIVER_STREAM_SINGLE_LINE
 10
509552.00
 20
1140142.00
  0
VERTEX
  8
RIVER_STREAM_SINGLE_LINE
 10
509567.00
 20
1140151.00
  0
VERTEX
  8
RIVER_STREAM_SINGLE_LINE
 10
509582.00
 20
1140157.00
  0
VERTEX
  8
RIVER_STREAM_SINGLE_LINE
 10
509593.00
 20
1140165.00
  0
VERTEX
  8
RIVER_STREAM_SINGLE_LINE
 10
509604.00
 20
1140180.00
  0
VERTEX
  8
RIVER_STREAM_SINGLE_LINE
 10
509615.00
 20
1140203.00
  0
VERTEX
  8
RIVER_STREAM_SINGLE_LINE
 10
509627.00
 20
1140227.00
  0
VERTEX
  8
RIVER_STREAM_SINGLE_LINE
 10
509642.00
 20
1140248.00
  0
VERTEX
  8
RIVER_STREAM_SINGLE_LINE
 10
509655.00
 20
1140259.00
  0
VERTEX
  8
RIVER_STREAM_SINGLE_LINE
 10
509676.00
 20
1140287.00
  0
VERTEX
  8
RIVER_STREAM_SINGLE_LINE
 10
509694.00
 20
1140305.00
  0
VERTEX
  8
RIVER_STREAM_SINGLE_LINE
 10
509704.00
 20
1140313.00
  0
VERTEX
  8
RIVER_STREAM_SINGLE_LINE
 10
509721.00
 20
1140316.00
  0
VERTEX
  8
RIVER_STREAM_SINGLE_LINE
 10
509738.00
 20
1140331.00
  0
VERTEX
  8
RIVER_STREAM_SINGLE_LINE
 10
509756.00
 20
1140343.00
  0
VERTEX
  8
RIVER_STREAM_SINGLE_LINE
 10
509773.00
 20
1140350.00
  0
VERTEX
  8
RIVER_STREAM_SINGLE_LINE
 10
509786.00
 20
1140356.00
  0
VERTEX
  8
RIVER_STREAM_SINGLE_LINE
 10
509794.00
 20
1140367.00
  0
VERTEX
  8
RIVER_STREAM_SINGLE_LINE
 10
509797.00
 20
1140378.00
  0
VERTEX
  8
RIVER_STREAM_SINGLE_LINE
 10
509796.00
 20
1140391.00
  0
VERTEX
  8
RIVER_STREAM_SINGLE_LINE
 10
509789.00
 20
1140399.00
  0
VERTEX
  8
RIVER_STREAM_SINGLE_LINE
 10
509782.00
 20
1140409.00
  0
VERTEX
  8
RIVER_STREAM_SINGLE_LINE
 10
509784.00
 20
1140418.00
  0
VERTEX
  8
RIVER_STREAM_SINGLE_LINE
 10
509789.00
 20
1140444.00
  0
VERTEX
  8
RIVER_STREAM_SINGLE_LINE
 10
509791.00
 20
1140458.00
  0
VERTEX
  8
RIVER_STREAM_SINGLE_LINE
 10
509793.00
 20
1140479.00
  0
VERTEX
  8
RIVER_STREAM_SINGLE_LINE
 10
509796.00
 20
1140497.00
  0
VERTEX
  8
RIVER_STREAM_SINGLE_LINE
 10
509798.00
 20
1140508.00
  0
VERTEX
  8
RIVER_STREAM_SINGLE_LINE
 10
509807.00
 20
1140521.00
  0
VERTEX
  8
RIVER_STREAM_SINGLE_LINE
 10
509817.00
 20
1140524.00
  0
VERTEX
  8
RIVER_STREAM_SINGLE_LINE
 10
509829.00
 20
1140530.00
  0
VERTEX
  8
RIVER_STREAM_SINGLE_LINE
 10
509848.00
 20
1140560.00
  0
VERTEX
  8
RIVER_STREAM_SINGLE_LINE
 10
509854.00
 20
1140565.00
  0
VERTEX
  8
RIVER_STREAM_SINGLE_LINE
 10
509869.00
 20
1140561.00
  0
VERTEX
  8
RIVER_STREAM_SINGLE_LINE
 10
509880.00
 20
1140567.00
  0
VERTEX
  8
RIVER_STREAM_SINGLE_LINE
 10
509895.00
 20
1140574.00
  0
VERTEX
  8
RIVER_STREAM_SINGLE_LINE
 10
509909.00
 20
1140579.00
  0
VERTEX
  8
RIVER_STREAM_SINGLE_LINE
 10
509920.00
 20
1140586.00
  0
VERTEX
  8
RIVER_STREAM_SINGLE_LINE
 10
509928.00
 20
1140595.00
  0
VERTEX
  8
RIVER_STREAM_SINGLE_LINE
 10
509929.00
 20
1140607.00
  0
VERTEX
  8
RIVER_STREAM_SINGLE_LINE
 10
509928.00
 20
1140621.00
  0
VERTEX
  8
RIVER_STREAM_SINGLE_LINE
 10
509929.00
 20
1140635.00
  0
VERTEX
  8
RIVER_STREAM_SINGLE_LINE
 10
509940.00
 20
1140652.00
  0
VERTEX
  8
RIVER_STREAM_SINGLE_LINE
 10
509954.00
 20
1140666.00
  0
VERTEX
  8
RIVER_STREAM_SINGLE_LINE
 10
509968.00
 20
1140682.00
  0
VERTEX
  8
RIVER_STREAM_SINGLE_LINE
 10
509976.00
 20
1140702.00
  0
VERTEX
  8
RIVER_STREAM_SINGLE_LINE
 10
509974.00
 20
1140719.00
  0
VERTEX
  8
RIVER_STREAM_SINGLE_LINE
 10
509969.00
 20
1140734.00
  0
VERTEX
  8
RIVER_STREAM_SINGLE_LINE
 10
509962.00
 20
1140746.00
  0
VERTEX
  8
RIVER_STREAM_SINGLE_LINE
 10
509961.00
 20
1140756.00
  0
VERTEX
  8
RIVER_STREAM_SINGLE_LINE
 10
509966.00
 20
1140765.00
  0
VERTEX
  8
RIVER_STREAM_SINGLE_LINE
 10
509977.00
 20
1140777.00
  0
VERTEX
  8
RIVER_STREAM_SINGLE_LINE
 10
510000.00
 20
1140801.00
  0
SEQEND
  8
RIVER_STREAM_SINGLE_LINE
  0
POLYLINE
  8
RIVER_STREAM_SINGLE_LINE
 66
     1
 62
     5
  6
CONTINUOUS
  0
VERTEX
  8
RIVER_STREAM_SINGLE_LINE
 10
509909.00
 20
1140000.00
  0
VERTEX
  8
RIVER_STREAM_SINGLE_LINE
 10
509922.00
 20
1140015.00
  0
VERTEX
  8
RIVER_STREAM_SINGLE_LINE
 10
509935.00
 20
1140027.00
  0
VERTEX
  8
RIVER_STREAM_SINGLE_LINE
 10
509934.00
 20
1140033.00
  0
VERTEX
  8
RIVER_STREAM_SINGLE_LINE
 10
509925.00
 20
1140045.00
  0
VERTEX
  8
RIVER_STREAM_SINGLE_LINE
 10
509918.00
 20
1140056.00
  0
VERTEX
  8
RIVER_STREAM_SINGLE_LINE
 10
509921.00
 20
1140066.00
  0
VERTEX
  8
RIVER_STREAM_SINGLE_LINE
 10
509930.00
 20
1140072.00
  0
VERTEX
  8
RIVER_STREAM_SINGLE_LINE
 10
509947.00
 20
1140071.00
  0
VERTEX
  8
RIVER_STREAM_SINGLE_LINE
 10
509966.00
 20
1140073.00
  0
VERTEX
  8
RIVER_STREAM_SINGLE_LINE
 10
509979.00
 20
1140083.00
  0
VERTEX
  8
RIVER_STREAM_SINGLE_LINE
 10
510000.00
 20
1140104.00
  0
SEQEND
  8
RIVER_STREAM_SINGLE_LINE
  0
ENDSEC
  0
EOF
