  0
SECTION
  2
HEADER
  9
$DWGCODEPAGE
  3
iso8859-1
  9
$EXTMIN
 10
500000.00
 20
1140000.00
  9
$EXTMAX
 10
510000.00
 20
1150000.00
  9
$LUPREC
 70
    14
  0
ENDSEC
  0
SECTION
  2
TABLES
  0
ENDSEC
  0
SECTION
  2
BLOCKS
  0
ENDSEC
  0
SECTION
  2
ENTITIES
  0
POLYLINE
  8
VIRTUAL_SEGMENT_LOT
 66
     1
 62
    14
  6
CONTINUOUS
  0
VERTEX
  8
VIRTUAL_SEGMENT_LOT
 10
505106.00
 20
1148622.00
  0
VERTEX
  8
VIRTUAL_SEGMENT_LOT
 10
505110.00
 20
1148426.00
  0
SEQEND
  8
VIRTUAL_SEGMENT_LOT
  0
POLYLINE
  8
VIRTUAL_SEGMENT_LOT
 66
     1
 62
    14
  6
CONTINUOUS
  0
VERTEX
  8
VIRTUAL_SEGMENT_LOT
 10
503488.00
 20
1148617.00
  0
VERTEX
  8
VIRTUAL_SEGMENT_LOT
 10
503483.00
 20
1148393.00
  0
SEQEND
  8
VIRTUAL_SEGMENT_LOT
  0
POLYLINE
  8
BDRY_TWP
 66
     1
 62
     4
  6
CONTINUOUS
  0
VERTEX
  8
BDRY_TWP
 10
504278.00
 20
1148619.00
  0
VERTEX
  8
BDRY_TWP
 10
504285.00
 20
1147927.00
  0
SEQEND
  8
BDRY_TWP
  0
POLYLINE
  8
BDRY_TWP_LOT_UNSURVEYED
 66
     1
 62
     2
  6
DIVIDE
  0
VERTEX
  8
BDRY_TWP_LOT_UNSURVEYED
 10
503483.00
 20
1148393.00
  0
VERTEX
  8
BDRY_TWP_LOT_UNSURVEYED
 10
503474.00
 20
1147904.00
  0
SEQEND
  8
BDRY_TWP_LOT_UNSURVEYED
  0
POLYLINE
  8
VIRTUAL_SEGMENT_LOT
 66
     1
 62
    14
  6
CONTINUOUS
  0
VERTEX
  8
VIRTUAL_SEGMENT_LOT
 10
507495.69
 20
1148610.00
  0
VERTEX
  8
VIRTUAL_SEGMENT_LOT
 10
507494.00
 20
1147682.00
  0
SEQEND
  8
VIRTUAL_SEGMENT_LOT
  0
POLYLINE
  8
BDRY_TWP_LOT-SURVEYED
 66
     1
 62
     2
  6
DASHDOT2
  0
VERTEX
  8
BDRY_TWP_LOT-SURVEYED
 10
505894.00
 20
1148621.00
  0
VERTEX
  8
BDRY_TWP_LOT-SURVEYED
 10
505905.00
 20
1147390.00
  0
SEQEND
  8
BDRY_TWP_LOT-SURVEYED
  0
POLYLINE
  8
BDRY_TWP_LOT_UNSURVEYED
 66
     1
 62
     2
  6
DIVIDE
  0
VERTEX
  8
BDRY_TWP_LOT_UNSURVEYED
 10
505110.00
 20
1148426.00
  0
VERTEX
  8
BDRY_TWP_LOT_UNSURVEYED
 10
505118.00
 20
1147138.00
  0
SEQEND
  8
BDRY_TWP_LOT_UNSURVEYED
  0
POLYLINE
  8
BDRY_TWP_LOT-SURVEYED
 66
     1
 62
     2
  6
DASHDOT2
  0
VERTEX
  8
BDRY_TWP_LOT-SURVEYED
 10
502686.00
 20
1147027.00
  0
VERTEX
  8
BDRY_TWP_LOT-SURVEYED
 10
503243.00
 20
1147021.00
  0
SEQEND
  8
BDRY_TWP_LOT-SURVEYED
  0
POLYLINE
  8
VIRTUAL_SEGMENT_LOT
 66
     1
 62
    14
  6
CONTINUOUS
  0
VERTEX
  8
VIRTUAL_SEGMENT_LOT
 10
503243.00
 20
1147021.00
  0
VERTEX
  8
VIRTUAL_SEGMENT_LOT
 10
503470.00
 20
1147018.00
  0
SEQEND
  8
VIRTUAL_SEGMENT_LOT
  0
POLYLINE
  8
VIRTUAL_SEGMENT_LOT
 66
     1
 62
    14
  6
CONTINUOUS
  0
VERTEX
  8
VIRTUAL_SEGMENT_LOT
 10
503474.00
 20
1147904.00
  0
VERTEX
  8
VIRTUAL_SEGMENT_LOT
 10
503482.84
 20
1147017.75
  0
SEQEND
  8
VIRTUAL_SEGMENT_LOT
  0
POLYLINE
  8
BDRY_TWP_LOT-SURVEYED
 66
     1
 62
     2
  6
DASHDOT2
  0
VERTEX
  8
BDRY_TWP_LOT-SURVEYED
 10
503470.00
 20
1147018.00
  0
VERTEX
  8
BDRY_TWP_LOT-SURVEYED
 10
503482.84
 20
1147017.75
  0
SEQEND
  8
BDRY_TWP_LOT-SURVEYED
  0
POLYLINE
  8
VIRTUAL_SEGMENT_TOWNSHIP
 66
     1
 62
    14
  6
CONTINUOUS
  0
VERTEX
  8
VIRTUAL_SEGMENT_TOWNSHIP
 10
504292.28
 20
1147014.63
  0
VERTEX
  8
VIRTUAL_SEGMENT_TOWNSHIP
 10
504285.00
 20
1147927.00
  0
SEQEND
  8
VIRTUAL_SEGMENT_TOWNSHIP
  0
POLYLINE
  8
VIRTUAL_SEGMENT_LOT
 66
     1
 62
    14
  6
CONTINUOUS
  0
VERTEX
  8
VIRTUAL_SEGMENT_LOT
 10
505118.00
 20
1147138.00
  0
VERTEX
  8
VIRTUAL_SEGMENT_LOT
 10
505117.00
 20
1147013.00
  0
SEQEND
  8
VIRTUAL_SEGMENT_LOT
  0
POLYLINE
  8
BDRY_TWP_LOT_UNSURVEYED
 66
     1
 62
     2
  6
DIVIDE
  0
VERTEX
  8
BDRY_TWP_LOT_UNSURVEYED
 10
506682.00
 20
1148618.00
  0
VERTEX
  8
BDRY_TWP_LOT_UNSURVEYED
 10
506700.00
 20
1147013.00
  0
SEQEND
  8
BDRY_TWP_LOT_UNSURVEYED
  0
POLYLINE
  8
VIRTUAL_SEGMENT_LOT
 66
     1
 62
    14
  6
CONTINUOUS
  0
VERTEX
  8
VIRTUAL_SEGMENT_LOT
 10
505905.00
 20
1147390.00
  0
VERTEX
  8
VIRTUAL_SEGMENT_LOT
 10
505908.00
 20
1147011.00
  0
SEQEND
  8
VIRTUAL_SEGMENT_LOT
  0
POLYLINE
  8
BDRY_TWP_LOT-SURVEYED
 66
     1
 62
     2
  6
DASHDOT2
  0
VERTEX
  8
BDRY_TWP_LOT-SURVEYED
 10
507494.00
 20
1147682.00
  0
VERTEX
  8
BDRY_TWP_LOT-SURVEYED
 10
507496.00
 20
1147007.00
  0
SEQEND
  8
BDRY_TWP_LOT-SURVEYED
  0
POLYLINE
  8
BDRY_TWP_LOT_UNSURVEYED
 66
     1
 62
     2
  6
DIVIDE
  0
VERTEX
  8
BDRY_TWP_LOT_UNSURVEYED
 10
508293.00
 20
1148600.00
  0
VERTEX
  8
BDRY_TWP_LOT_UNSURVEYED
 10
508303.00
 20
1147002.00
  0
SEQEND
  8
BDRY_TWP_LOT_UNSURVEYED
  0
POLYLINE
  8
VIRTUAL_SEGMENT_LOT
 66
     1
 62
    14
  6
CONTINUOUS
  0
VERTEX
  8
VIRTUAL_SEGMENT_LOT
 10
502696.00
 20
1146362.00
  0
VERTEX
  8
VIRTUAL_SEGMENT_LOT
 10
502709.00
 20
1146357.00
  0
VERTEX
  8
VIRTUAL_SEGMENT_LOT
 10
502728.00
 20
1146356.00
  0
VERTEX
  8
VIRTUAL_SEGMENT_LOT
 10
502734.00
 20
1146370.00
  0
VERTEX
  8
VIRTUAL_SEGMENT_LOT
 10
502742.00
 20
1146381.00
  0
VERTEX
  8
VIRTUAL_SEGMENT_LOT
 10
502758.00
 20
1146387.00
  0
VERTEX
  8
VIRTUAL_SEGMENT_LOT
 10
502780.00
 20
1146389.00
  0
VERTEX
  8
VIRTUAL_SEGMENT_LOT
 10
502793.00
 20
1146392.00
  0
VERTEX
  8
VIRTUAL_SEGMENT_LOT
 10
502814.00
 20
1146411.00
  0
VERTEX
  8
VIRTUAL_SEGMENT_LOT
 10
502840.00
 20
1146433.00
  0
VERTEX
  8
VIRTUAL_SEGMENT_LOT
 10
502873.00
 20
1146457.00
  0
VERTEX
  8
VIRTUAL_SEGMENT_LOT
 10
502907.00
 20
1146482.00
  0
VERTEX
  8
VIRTUAL_SEGMENT_LOT
 10
502934.00
 20
1146500.00
  0
VERTEX
  8
VIRTUAL_SEGMENT_LOT
 10
502947.00
 20
1146509.00
  0
VERTEX
  8
VIRTUAL_SEGMENT_LOT
 10
502967.00
 20
1146514.00
  0
VERTEX
  8
VIRTUAL_SEGMENT_LOT
 10
502980.00
 20
1146517.00
  0
VERTEX
  8
VIRTUAL_SEGMENT_LOT
 10
503017.00
 20
1146505.00
  0
VERTEX
  8
VIRTUAL_SEGMENT_LOT
 10
503055.00
 20
1146480.00
  0
VERTEX
  8
VIRTUAL_SEGMENT_LOT
 10
503072.00
 20
1146460.00
  0
VERTEX
  8
VIRTUAL_SEGMENT_LOT
 10
503067.00
 20
1146442.00
  0
VERTEX
  8
VIRTUAL_SEGMENT_LOT
 10
503063.00
 20
1146422.00
  0
VERTEX
  8
VIRTUAL_SEGMENT_LOT
 10
503076.00
 20
1146419.00
  0
VERTEX
  8
VIRTUAL_SEGMENT_LOT
 10
503092.00
 20
1146426.00
  0
VERTEX
  8
VIRTUAL_SEGMENT_LOT
 10
503105.00
 20
1146438.00
  0
VERTEX
  8
VIRTUAL_SEGMENT_LOT
 10
503118.00
 20
1146445.00
  0
VERTEX
  8
VIRTUAL_SEGMENT_LOT
 10
503140.00
 20
1146445.00
  0
VERTEX
  8
VIRTUAL_SEGMENT_LOT
 10
503178.00
 20
1146449.00
  0
VERTEX
  8
VIRTUAL_SEGMENT_LOT
 10
503206.00
 20
1146450.00
  0
VERTEX
  8
VIRTUAL_SEGMENT_LOT
 10
503223.00
 20
1146449.00
  0
VERTEX
  8
VIRTUAL_SEGMENT_LOT
 10
503244.00
 20
1146445.00
  0
VERTEX
  8
VIRTUAL_SEGMENT_LOT
 10
503265.00
 20
1146435.00
  0
VERTEX
  8
VIRTUAL_SEGMENT_LOT
 10
503282.00
 20
1146424.00
  0
VERTEX
  8
VIRTUAL_SEGMENT_LOT
 10
503288.00
 20
1146408.00
  0
VERTEX
  8
VIRTUAL_SEGMENT_LOT
 10
503299.00
 20
1146396.00
  0
VERTEX
  8
VIRTUAL_SEGMENT_LOT
 10
503306.00
 20
1146382.00
  0
VERTEX
  8
VIRTUAL_SEGMENT_LOT
 10
503312.00
 20
1146360.00
  0
VERTEX
  8
VIRTUAL_SEGMENT_LOT
 10
503314.00
 20
1146336.00
  0
VERTEX
  8
VIRTUAL_SEGMENT_LOT
 10
503319.00
 20
1146326.00
  0
VERTEX
  8
VIRTUAL_SEGMENT_LOT
 10
503324.00
 20
1146318.00
  0
VERTEX
  8
VIRTUAL_SEGMENT_LOT
 10
503326.00
 20
1146313.00
  0
VERTEX
  8
VIRTUAL_SEGMENT_LOT
 10
503319.00
 20
1146302.00
  0
VERTEX
  8
VIRTUAL_SEGMENT_LOT
 10
503311.00
 20
1146285.00
  0
VERTEX
  8
VIRTUAL_SEGMENT_LOT
 10
503303.00
 20
1146271.00
  0
VERTEX
  8
VIRTUAL_SEGMENT_LOT
 10
503305.00
 20
1146255.00
  0
VERTEX
  8
VIRTUAL_SEGMENT_LOT
 10
503296.00
 20
1146248.00
  0
VERTEX
  8
VIRTUAL_SEGMENT_LOT
 10
503282.00
 20
1146232.00
  0
VERTEX
  8
VIRTUAL_SEGMENT_LOT
 10
503265.00
 20
1146215.00
  0
VERTEX
  8
VIRTUAL_SEGMENT_LOT
 10
503244.00
 20
1146189.00
  0
VERTEX
  8
VIRTUAL_SEGMENT_LOT
 10
503220.00
 20
1146147.00
  0
VERTEX
  8
VIRTUAL_SEGMENT_LOT
 10
503197.00
 20
1146115.00
  0
VERTEX
  8
VIRTUAL_SEGMENT_LOT
 10
503177.00
 20
1146095.00
  0
VERTEX
  8
VIRTUAL_SEGMENT_LOT
 10
503149.00
 20
1146068.00
  0
VERTEX
  8
VIRTUAL_SEGMENT_LOT
 10
503122.00
 20
1146041.00
  0
VERTEX
  8
VIRTUAL_SEGMENT_LOT
 10
503096.00
 20
1146021.00
  0
VERTEX
  8
VIRTUAL_SEGMENT_LOT
 10
503073.00
 20
1146007.00
  0
VERTEX
  8
VIRTUAL_SEGMENT_LOT
 10
503045.00
 20
1146005.00
  0
VERTEX
  8
VIRTUAL_SEGMENT_LOT
 10
503021.00
 20
1145993.00
  0
VERTEX
  8
VIRTUAL_SEGMENT_LOT
 10
503000.00
 20
1145982.00
  0
VERTEX
  8
VIRTUAL_SEGMENT_LOT
 10
502963.00
 20
1145972.00
  0
VERTEX
  8
VIRTUAL_SEGMENT_LOT
 10
502919.00
 20
1145965.00
  0
VERTEX
  8
VIRTUAL_SEGMENT_LOT
 10
502877.00
 20
1145967.00
  0
VERTEX
  8
VIRTUAL_SEGMENT_LOT
 10
502853.00
 20
1145970.00
  0
VERTEX
  8
VIRTUAL_SEGMENT_LOT
 10
502839.00
 20
1145978.00
  0
VERTEX
  8
VIRTUAL_SEGMENT_LOT
 10
502824.00
 20
1145991.00
  0
VERTEX
  8
VIRTUAL_SEGMENT_LOT
 10
502805.00
 20
1145987.00
  0
VERTEX
  8
VIRTUAL_SEGMENT_LOT
 10
502788.00
 20
1145973.00
  0
VERTEX
  8
VIRTUAL_SEGMENT_LOT
 10
502775.00
 20
1145960.00
  0
VERTEX
  8
VIRTUAL_SEGMENT_LOT
 10
502775.00
 20
1145941.00
  0
VERTEX
  8
VIRTUAL_SEGMENT_LOT
 10
502772.00
 20
1145916.00
  0
VERTEX
  8
VIRTUAL_SEGMENT_LOT
 10
502764.00
 20
1145897.00
  0
VERTEX
  8
VIRTUAL_SEGMENT_LOT
 10
502752.00
 20
1145885.00
  0
VERTEX
  8
VIRTUAL_SEGMENT_LOT
 10
502742.00
 20
1145876.00
  0
VERTEX
  8
VIRTUAL_SEGMENT_LOT
 10
502730.00
 20
1145865.00
  0
VERTEX
  8
VIRTUAL_SEGMENT_LOT
 10
502718.00
 20
1145863.00
  0
VERTEX
  8
VIRTUAL_SEGMENT_LOT
 10
502702.00
 20
1145863.00
  0
VERTEX
  8
VIRTUAL_SEGMENT_LOT
 10
502692.00
 20
1145865.00
  0
SEQEND
  8
VIRTUAL_SEGMENT_LOT
  0
POLYLINE
  8
BDRY_TWP_LOT-SURVEYED
 66
     1
 62
     2
  6
DASHDOT2
  0
VERTEX
  8
BDRY_TWP_LOT-SURVEYED
 10
502694.00
 20
1145410.00
  0
VERTEX
  8
BDRY_TWP_LOT-SURVEYED
 10
503504.00
 20
1145425.00
  0
SEQEND
  8
BDRY_TWP_LOT-SURVEYED
  0
POLYLINE
  8
BDRY_TWP_LOT-SURVEYED
 66
     1
 62
     2
  6
DASHDOT2
  0
VERTEX
  8
BDRY_TWP_LOT-SURVEYED
 10
501113.41
 20
1145383.00
  0
VERTEX
  8
BDRY_TWP_LOT-SURVEYED
 10
501123.00
 20
1145383.00
  0
SEQEND
  8
BDRY_TWP_LOT-SURVEYED
  0
POLYLINE
  8
BDRY_TWP_LOT-SURVEYED
 66
     1
 62
     2
  6
DASHDOT2
  0
VERTEX
  8
BDRY_TWP_LOT-SURVEYED
 10
500799.00
 20
1145377.00
  0
VERTEX
  8
BDRY_TWP_LOT-SURVEYED
 10
501041.00
 20
1145381.00
  0
VERTEX
  8
BDRY_TWP_LOT-SURVEYED
 10
501060.00
 20
1145382.00
  0
SEQEND
  8
BDRY_TWP_LOT-SURVEYED
  0
POLYLINE
  8
VIRTUAL_SEGMENT_LOT
 66
     1
 62
    14
  6
CONTINUOUS
  0
VERTEX
  8
VIRTUAL_SEGMENT_LOT
 10
500289.00
 20
1145372.50
  0
VERTEX
  8
VIRTUAL_SEGMENT_LOT
 10
500799.00
 20
1145377.00
  0
SEQEND
  8
VIRTUAL_SEGMENT_LOT
  0
POLYLINE
  8
VIRTUAL_SEGMENT_TOWNSHIP
 66
     1
 62
    14
  6
CONTINUOUS
  0
VERTEX
  8
VIRTUAL_SEGMENT_TOWNSHIP
 10
504313.00
 20
1144065.00
  0
VERTEX
  8
VIRTUAL_SEGMENT_TOWNSHIP
 10
504304.00
 20
1144055.00
  0
VERTEX
  8
VIRTUAL_SEGMENT_TOWNSHIP
 10
504292.00
 20
1144047.00
  0
VERTEX
  8
VIRTUAL_SEGMENT_TOWNSHIP
 10
504280.00
 20
1144033.00
  0
VERTEX
  8
VIRTUAL_SEGMENT_TOWNSHIP
 10
504280.00
 20
1144021.00
  0
VERTEX
  8
VIRTUAL_SEGMENT_TOWNSHIP
 10
504281.00
 20
1143997.00
  0
VERTEX
  8
VIRTUAL_SEGMENT_TOWNSHIP
 10
504284.00
 20
1143967.00
  0
VERTEX
  8
VIRTUAL_SEGMENT_TOWNSHIP
 10
504280.00
 20
1143955.00
  0
VERTEX
  8
VIRTUAL_SEGMENT_TOWNSHIP
 10
504276.00
 20
1143939.00
  0
VERTEX
  8
VIRTUAL_SEGMENT_TOWNSHIP
 10
504271.00
 20
1143920.00
  0
VERTEX
  8
VIRTUAL_SEGMENT_TOWNSHIP
 10
504274.00
 20
1143902.00
  0
VERTEX
  8
VIRTUAL_SEGMENT_TOWNSHIP
 10
504282.00
 20
1143888.00
  0
VERTEX
  8
VIRTUAL_SEGMENT_TOWNSHIP
 10
504294.00
 20
1143886.00
  0
VERTEX
  8
VIRTUAL_SEGMENT_TOWNSHIP
 10
504306.00
 20
1143892.00
  0
VERTEX
  8
VIRTUAL_SEGMENT_TOWNSHIP
 10
504313.00
 20
1143894.00
  0
VERTEX
  8
VIRTUAL_SEGMENT_TOWNSHIP
 10
504314.00
 20
1143893.00
  0
SEQEND
  8
VIRTUAL_SEGMENT_TOWNSHIP
  0
POLYLINE
  8
VIRTUAL_SEGMENT_TOWNSHIP
 66
     1
 62
    14
  6
CONTINUOUS
  0
VERTEX
  8
VIRTUAL_SEGMENT_TOWNSHIP
 10
504314.00
 20
1143869.00
  0
VERTEX
  8
VIRTUAL_SEGMENT_TOWNSHIP
 10
504308.00
 20
1143864.00
  0
VERTEX
  8
VIRTUAL_SEGMENT_TOWNSHIP
 10
504302.00
 20
1143854.00
  0
VERTEX
  8
VIRTUAL_SEGMENT_TOWNSHIP
 10
504306.00
 20
1143841.00
  0
VERTEX
  8
VIRTUAL_SEGMENT_TOWNSHIP
 10
504314.00
 20
1143830.00
  0
SEQEND
  8
VIRTUAL_SEGMENT_TOWNSHIP
  0
POLYLINE
  8
VIRTUAL_SEGMENT_TOWNSHIP
 66
     1
 62
    14
  6
CONTINUOUS
  0
VERTEX
  8
VIRTUAL_SEGMENT_TOWNSHIP
 10
502699.00
 20
1144223.00
  0
VERTEX
  8
VIRTUAL_SEGMENT_TOWNSHIP
 10
502723.00
 20
1144219.00
  0
VERTEX
  8
VIRTUAL_SEGMENT_TOWNSHIP
 10
502748.00
 20
1144212.00
  0
VERTEX
  8
VIRTUAL_SEGMENT_TOWNSHIP
 10
502760.00
 20
1144213.00
  0
VERTEX
  8
VIRTUAL_SEGMENT_TOWNSHIP
 10
502779.00
 20
1144225.00
  0
VERTEX
  8
VIRTUAL_SEGMENT_TOWNSHIP
 10
502794.00
 20
1144244.00
  0
VERTEX
  8
VIRTUAL_SEGMENT_TOWNSHIP
 10
502806.00
 20
1144254.00
  0
VERTEX
  8
VIRTUAL_SEGMENT_TOWNSHIP
 10
502821.00
 20
1144262.00
  0
VERTEX
  8
VIRTUAL_SEGMENT_TOWNSHIP
 10
502827.00
 20
1144257.00
  0
VERTEX
  8
VIRTUAL_SEGMENT_TOWNSHIP
 10
502836.00
 20
1144250.00
  0
VERTEX
  8
VIRTUAL_SEGMENT_TOWNSHIP
 10
502845.00
 20
1144248.00
  0
VERTEX
  8
VIRTUAL_SEGMENT_TOWNSHIP
 10
502857.00
 20
1144260.00
  0
VERTEX
  8
VIRTUAL_SEGMENT_TOWNSHIP
 10
502867.00
 20
1144262.00
  0
VERTEX
  8
VIRTUAL_SEGMENT_TOWNSHIP
 10
502882.00
 20
1144257.00
  0
VERTEX
  8
VIRTUAL_SEGMENT_TOWNSHIP
 10
502887.00
 20
1144254.00
  0
VERTEX
  8
VIRTUAL_SEGMENT_TOWNSHIP
 10
502906.00
 20
1144266.00
  0
VERTEX
  8
VIRTUAL_SEGMENT_TOWNSHIP
 10
502916.00
 20
1144282.00
  0
VERTEX
  8
VIRTUAL_SEGMENT_TOWNSHIP
 10
502916.00
 20
1144306.00
  0
VERTEX
  8
VIRTUAL_SEGMENT_TOWNSHIP
 10
502906.00
 20
1144335.00
  0
VERTEX
  8
VIRTUAL_SEGMENT_TOWNSHIP
 10
502887.00
 20
1144356.00
  0
VERTEX
  8
VIRTUAL_SEGMENT_TOWNSHIP
 10
502872.00
 20
1144364.00
  0
VERTEX
  8
VIRTUAL_SEGMENT_TOWNSHIP
 10
502861.00
 20
1144370.00
  0
VERTEX
  8
VIRTUAL_SEGMENT_TOWNSHIP
 10
502853.00
 20
1144384.00
  0
VERTEX
  8
VIRTUAL_SEGMENT_TOWNSHIP
 10
502852.00
 20
1144396.00
  0
VERTEX
  8
VIRTUAL_SEGMENT_TOWNSHIP
 10
502864.00
 20
1144411.00
  0
VERTEX
  8
VIRTUAL_SEGMENT_TOWNSHIP
 10
502873.00
 20
1144428.00
  0
VERTEX
  8
VIRTUAL_SEGMENT_TOWNSHIP
 10
502884.00
 20
1144441.00
  0
VERTEX
  8
VIRTUAL_SEGMENT_TOWNSHIP
 10
502887.00
 20
1144451.00
  0
VERTEX
  8
VIRTUAL_SEGMENT_TOWNSHIP
 10
502899.00
 20
1144459.00
  0
VERTEX
  8
VIRTUAL_SEGMENT_TOWNSHIP
 10
502912.00
 20
1144451.00
  0
VERTEX
  8
VIRTUAL_SEGMENT_TOWNSHIP
 10
502926.00
 20
1144456.00
  0
VERTEX
  8
VIRTUAL_SEGMENT_TOWNSHIP
 10
502929.00
 20
1144469.00
  0
VERTEX
  8
VIRTUAL_SEGMENT_TOWNSHIP
 10
502914.00
 20
1144478.00
  0
VERTEX
  8
VIRTUAL_SEGMENT_TOWNSHIP
 10
502908.00
 20
1144484.00
  0
VERTEX
  8
VIRTUAL_SEGMENT_TOWNSHIP
 10
502910.00
 20
1144492.00
  0
VERTEX
  8
VIRTUAL_SEGMENT_TOWNSHIP
 10
502922.00
 20
1144498.00
  0
VERTEX
  8
VIRTUAL_SEGMENT_TOWNSHIP
 10
502939.00
 20
1144499.00
  0
VERTEX
  8
VIRTUAL_SEGMENT_TOWNSHIP
 10
502955.00
 20
1144504.00
  0
VERTEX
  8
VIRTUAL_SEGMENT_TOWNSHIP
 10
502963.00
 20
1144515.00
  0
VERTEX
  8
VIRTUAL_SEGMENT_TOWNSHIP
 10
502970.00
 20
1144529.00
  0
VERTEX
  8
VIRTUAL_SEGMENT_TOWNSHIP
 10
502978.00
 20
1144539.00
  0
VERTEX
  8
VIRTUAL_SEGMENT_TOWNSHIP
 10
502990.00
 20
1144538.00
  0
VERTEX
  8
VIRTUAL_SEGMENT_TOWNSHIP
 10
503001.00
 20
1144540.00
  0
VERTEX
  8
VIRTUAL_SEGMENT_TOWNSHIP
 10
503013.00
 20
1144558.00
  0
VERTEX
  8
VIRTUAL_SEGMENT_TOWNSHIP
 10
503034.00
 20
1144579.00
  0
VERTEX
  8
VIRTUAL_SEGMENT_TOWNSHIP
 10
503054.00
 20
1144604.00
  0
VERTEX
  8
VIRTUAL_SEGMENT_TOWNSHIP
 10
503067.00
 20
1144630.00
  0
VERTEX
  8
VIRTUAL_SEGMENT_TOWNSHIP
 10
503077.00
 20
1144646.00
  0
VERTEX
  8
VIRTUAL_SEGMENT_TOWNSHIP
 10
503094.00
 20
1144656.00
  0
VERTEX
  8
VIRTUAL_SEGMENT_TOWNSHIP
 10
503104.00
 20
1144664.00
  0
VERTEX
  8
VIRTUAL_SEGMENT_TOWNSHIP
 10
503110.00
 20
1144669.00
  0
VERTEX
  8
VIRTUAL_SEGMENT_TOWNSHIP
 10
503116.00
 20
1144670.00
  0
VERTEX
  8
VIRTUAL_SEGMENT_TOWNSHIP
 10
503125.00
 20
1144664.00
  0
VERTEX
  8
VIRTUAL_SEGMENT_TOWNSHIP
 10
503126.00
 20
1144663.00
  0
VERTEX
  8
VIRTUAL_SEGMENT_TOWNSHIP
 10
503140.00
 20
1144656.00
  0
VERTEX
  8
VIRTUAL_SEGMENT_TOWNSHIP
 10
503162.00
 20
1144656.00
  0
VERTEX
  8
VIRTUAL_SEGMENT_TOWNSHIP
 10
503181.00
 20
1144666.00
  0
VERTEX
  8
VIRTUAL_SEGMENT_TOWNSHIP
 10
503194.00
 20
1144679.00
  0
VERTEX
  8
VIRTUAL_SEGMENT_TOWNSHIP
 10
503206.00
 20
1144691.00
  0
VERTEX
  8
VIRTUAL_SEGMENT_TOWNSHIP
 10
503211.00
 20
1144699.00
  0
VERTEX
  8
VIRTUAL_SEGMENT_TOWNSHIP
 10
503220.00
 20
1144701.00
  0
VERTEX
  8
VIRTUAL_SEGMENT_TOWNSHIP
 10
503224.00
 20
1144689.00
  0
VERTEX
  8
VIRTUAL_SEGMENT_TOWNSHIP
 10
503230.00
 20
1144649.00
  0
VERTEX
  8
VIRTUAL_SEGMENT_TOWNSHIP
 10
503233.00
 20
1144619.00
  0
VERTEX
  8
VIRTUAL_SEGMENT_TOWNSHIP
 10
503234.00
 20
1144605.00
  0
VERTEX
  8
VIRTUAL_SEGMENT_TOWNSHIP
 10
503233.00
 20
1144589.00
  0
VERTEX
  8
VIRTUAL_SEGMENT_TOWNSHIP
 10
503228.00
 20
1144570.00
  0
VERTEX
  8
VIRTUAL_SEGMENT_TOWNSHIP
 10
503221.00
 20
1144554.00
  0
VERTEX
  8
VIRTUAL_SEGMENT_TOWNSHIP
 10
503215.00
 20
1144540.00
  0
VERTEX
  8
VIRTUAL_SEGMENT_TOWNSHIP
 10
503208.00
 20
1144526.00
  0
VERTEX
  8
VIRTUAL_SEGMENT_TOWNSHIP
 10
503205.00
 20
1144510.00
  0
VERTEX
  8
VIRTUAL_SEGMENT_TOWNSHIP
 10
503202.00
 20
1144496.00
  0
VERTEX
  8
VIRTUAL_SEGMENT_TOWNSHIP
 10
503208.00
 20
1144491.00
  0
VERTEX
  8
VIRTUAL_SEGMENT_TOWNSHIP
 10
503222.00
 20
1144489.00
  0
VERTEX
  8
VIRTUAL_SEGMENT_TOWNSHIP
 10
503259.00
 20
1144496.00
  0
VERTEX
  8
VIRTUAL_SEGMENT_TOWNSHIP
 10
503283.00
 20
1144500.00
  0
VERTEX
  8
VIRTUAL_SEGMENT_TOWNSHIP
 10
503303.00
 20
1144501.00
  0
VERTEX
  8
VIRTUAL_SEGMENT_TOWNSHIP
 10
503344.00
 20
1144508.00
  0
VERTEX
  8
VIRTUAL_SEGMENT_TOWNSHIP
 10
503356.00
 20
1144511.00
  0
VERTEX
  8
VIRTUAL_SEGMENT_TOWNSHIP
 10
503360.00
 20
1144508.00
  0
VERTEX
  8
VIRTUAL_SEGMENT_TOWNSHIP
 10
503356.00
 20
1144491.00
  0
VERTEX
  8
VIRTUAL_SEGMENT_TOWNSHIP
 10
503354.00
 20
1144453.00
  0
VERTEX
  8
VIRTUAL_SEGMENT_TOWNSHIP
 10
503354.00
 20
1144427.00
  0
VERTEX
  8
VIRTUAL_SEGMENT_TOWNSHIP
 10
503352.00
 20
1144405.00
  0
VERTEX
  8
VIRTUAL_SEGMENT_TOWNSHIP
 10
503356.00
 20
1144390.00
  0
VERTEX
  8
VIRTUAL_SEGMENT_TOWNSHIP
 10
503363.00
 20
1144387.00
  0
VERTEX
  8
VIRTUAL_SEGMENT_TOWNSHIP
 10
503375.00
 20
1144390.00
  0
VERTEX
  8
VIRTUAL_SEGMENT_TOWNSHIP
 10
503384.00
 20
1144390.00
  0
VERTEX
  8
VIRTUAL_SEGMENT_TOWNSHIP
 10
503390.00
 20
1144384.00
  0
VERTEX
  8
VIRTUAL_SEGMENT_TOWNSHIP
 10
503392.00
 20
1144369.00
  0
VERTEX
  8
VIRTUAL_SEGMENT_TOWNSHIP
 10
503391.00
 20
1144349.00
  0
VERTEX
  8
VIRTUAL_SEGMENT_TOWNSHIP
 10
503392.00
 20
1144331.00
  0
VERTEX
  8
VIRTUAL_SEGMENT_TOWNSHIP
 10
503393.00
 20
1144324.00
  0
VERTEX
  8
VIRTUAL_SEGMENT_TOWNSHIP
 10
503399.00
 20
1144325.00
  0
VERTEX
  8
VIRTUAL_SEGMENT_TOWNSHIP
 10
503413.00
 20
1144336.00
  0
VERTEX
  8
VIRTUAL_SEGMENT_TOWNSHIP
 10
503426.00
 20
1144345.00
  0
VERTEX
  8
VIRTUAL_SEGMENT_TOWNSHIP
 10
503438.00
 20
1144348.00
  0
VERTEX
  8
VIRTUAL_SEGMENT_TOWNSHIP
 10
503449.00
 20
1144347.00
  0
VERTEX
  8
VIRTUAL_SEGMENT_TOWNSHIP
 10
503453.00
 20
1144338.00
  0
VERTEX
  8
VIRTUAL_SEGMENT_TOWNSHIP
 10
503451.00
 20
1144318.00
  0
VERTEX
  8
VIRTUAL_SEGMENT_TOWNSHIP
 10
503447.00
 20
1144301.00
  0
VERTEX
  8
VIRTUAL_SEGMENT_TOWNSHIP
 10
503440.00
 20
1144287.00
  0
VERTEX
  8
VIRTUAL_SEGMENT_TOWNSHIP
 10
503435.00
 20
1144274.00
  0
VERTEX
  8
VIRTUAL_SEGMENT_TOWNSHIP
 10
503439.00
 20
1144257.00
  0
VERTEX
  8
VIRTUAL_SEGMENT_TOWNSHIP
 10
503444.00
 20
1144238.00
  0
VERTEX
  8
VIRTUAL_SEGMENT_TOWNSHIP
 10
503447.00
 20
1144215.00
  0
VERTEX
  8
VIRTUAL_SEGMENT_TOWNSHIP
 10
503440.00
 20
1144195.00
  0
VERTEX
  8
VIRTUAL_SEGMENT_TOWNSHIP
 10
503431.00
 20
1144173.00
  0
VERTEX
  8
VIRTUAL_SEGMENT_TOWNSHIP
 10
503417.00
 20
1144168.00
  0
VERTEX
  8
VIRTUAL_SEGMENT_TOWNSHIP
 10
503410.00
 20
1144163.00
  0
VERTEX
  8
VIRTUAL_SEGMENT_TOWNSHIP
 10
503404.00
 20
1144152.00
  0
VERTEX
  8
VIRTUAL_SEGMENT_TOWNSHIP
 10
503399.00
 20
1144141.00
  0
VERTEX
  8
VIRTUAL_SEGMENT_TOWNSHIP
 10
503392.00
 20
1144135.00
  0
VERTEX
  8
VIRTUAL_SEGMENT_TOWNSHIP
 10
503387.00
 20
1144135.00
  0
VERTEX
  8
VIRTUAL_SEGMENT_TOWNSHIP
 10
503379.00
 20
1144149.00
  0
VERTEX
  8
VIRTUAL_SEGMENT_TOWNSHIP
 10
503371.00
 20
1144162.00
  0
VERTEX
  8
VIRTUAL_SEGMENT_TOWNSHIP
 10
503361.00
 20
1144167.00
  0
VERTEX
  8
VIRTUAL_SEGMENT_TOWNSHIP
 10
503350.00
 20
1144162.00
  0
VERTEX
  8
VIRTUAL_SEGMENT_TOWNSHIP
 10
503347.00
 20
1144155.00
  0
VERTEX
  8
VIRTUAL_SEGMENT_TOWNSHIP
 10
503338.00
 20
1144139.00
  0
VERTEX
  8
VIRTUAL_SEGMENT_TOWNSHIP
 10
503332.00
 20
1144130.00
  0
VERTEX
  8
VIRTUAL_SEGMENT_TOWNSHIP
 10
503321.00
 20
1144122.00
  0
VERTEX
  8
VIRTUAL_SEGMENT_TOWNSHIP
 10
503308.00
 20
1144116.00
  0
VERTEX
  8
VIRTUAL_SEGMENT_TOWNSHIP
 10
503296.00
 20
1144120.00
  0
VERTEX
  8
VIRTUAL_SEGMENT_TOWNSHIP
 10
503289.00
 20
1144125.00
  0
VERTEX
  8
VIRTUAL_SEGMENT_TOWNSHIP
 10
503280.00
 20
1144141.00
  0
VERTEX
  8
VIRTUAL_SEGMENT_TOWNSHIP
 10
503271.00
 20
1144151.00
  0
VERTEX
  8
VIRTUAL_SEGMENT_TOWNSHIP
 10
503263.00
 20
1144148.00
  0
VERTEX
  8
VIRTUAL_SEGMENT_TOWNSHIP
 10
503260.00
 20
1144140.00
  0
VERTEX
  8
VIRTUAL_SEGMENT_TOWNSHIP
 10
503255.00
 20
1144128.00
  0
VERTEX
  8
VIRTUAL_SEGMENT_TOWNSHIP
 10
503251.00
 20
1144121.00
  0
VERTEX
  8
VIRTUAL_SEGMENT_TOWNSHIP
 10
503240.00
 20
1144124.00
  0
VERTEX
  8
VIRTUAL_SEGMENT_TOWNSHIP
 10
503235.00
 20
1144134.00
  0
VERTEX
  8
VIRTUAL_SEGMENT_TOWNSHIP
 10
503228.00
 20
1144140.00
  0
VERTEX
  8
VIRTUAL_SEGMENT_TOWNSHIP
 10
503215.00
 20
1144136.00
  0
VERTEX
  8
VIRTUAL_SEGMENT_TOWNSHIP
 10
503203.00
 20
1144124.00
  0
VERTEX
  8
VIRTUAL_SEGMENT_TOWNSHIP
 10
503194.00
 20
1144109.00
  0
VERTEX
  8
VIRTUAL_SEGMENT_TOWNSHIP
 10
503189.00
 20
1144094.00
  0
VERTEX
  8
VIRTUAL_SEGMENT_TOWNSHIP
 10
503184.00
 20
1144077.00
  0
VERTEX
  8
VIRTUAL_SEGMENT_TOWNSHIP
 10
503190.00
 20
1144056.00
  0
VERTEX
  8
VIRTUAL_SEGMENT_TOWNSHIP
 10
503193.00
 20
1144041.00
  0
VERTEX
  8
VIRTUAL_SEGMENT_TOWNSHIP
 10
503189.00
 20
1144026.00
  0
VERTEX
  8
VIRTUAL_SEGMENT_TOWNSHIP
 10
503172.00
 20
1144008.00
  0
VERTEX
  8
VIRTUAL_SEGMENT_TOWNSHIP
 10
503151.00
 20
1143995.00
  0
VERTEX
  8
VIRTUAL_SEGMENT_TOWNSHIP
 10
503141.00
 20
1143977.00
  0
VERTEX
  8
VIRTUAL_SEGMENT_TOWNSHIP
 10
503126.00
 20
1143954.00
  0
VERTEX
  8
VIRTUAL_SEGMENT_TOWNSHIP
 10
503101.00
 20
1143930.00
  0
VERTEX
  8
VIRTUAL_SEGMENT_TOWNSHIP
 10
503084.00
 20
1143915.00
  0
VERTEX
  8
VIRTUAL_SEGMENT_TOWNSHIP
 10
503067.00
 20
1143907.00
  0
VERTEX
  8
VIRTUAL_SEGMENT_TOWNSHIP
 10
503058.00
 20
1143903.00
  0
VERTEX
  8
VIRTUAL_SEGMENT_TOWNSHIP
 10
503057.00
 20
1143887.00
  0
VERTEX
  8
VIRTUAL_SEGMENT_TOWNSHIP
 10
503057.00
 20
1143876.00
  0
VERTEX
  8
VIRTUAL_SEGMENT_TOWNSHIP
 10
503045.00
 20
1143862.00
  0
VERTEX
  8
VIRTUAL_SEGMENT_TOWNSHIP
 10
503034.00
 20
1143853.00
  0
VERTEX
  8
VIRTUAL_SEGMENT_TOWNSHIP
 10
503037.00
 20
1143841.00
  0
VERTEX
  8
VIRTUAL_SEGMENT_TOWNSHIP
 10
503053.00
 20
1143833.00
  0
VERTEX
  8
VIRTUAL_SEGMENT_TOWNSHIP
 10
503075.00
 20
1143832.00
  0
VERTEX
  8
VIRTUAL_SEGMENT_TOWNSHIP
 10
503099.00
 20
1143835.00
  0
VERTEX
  8
VIRTUAL_SEGMENT_TOWNSHIP
 10
503116.00
 20
1143834.00
  0
VERTEX
  8
VIRTUAL_SEGMENT_TOWNSHIP
 10
503128.00
 20
1143830.00
  0
VERTEX
  8
VIRTUAL_SEGMENT_TOWNSHIP
 10
503146.00
 20
1143825.00
  0
VERTEX
  8
VIRTUAL_SEGMENT_TOWNSHIP
 10
503163.00
 20
1143832.00
  0
VERTEX
  8
VIRTUAL_SEGMENT_TOWNSHIP
 10
503192.00
 20
1143848.00
  0
VERTEX
  8
VIRTUAL_SEGMENT_TOWNSHIP
 10
503221.00
 20
1143868.00
  0
VERTEX
  8
VIRTUAL_SEGMENT_TOWNSHIP
 10
503247.00
 20
1143885.00
  0
VERTEX
  8
VIRTUAL_SEGMENT_TOWNSHIP
 10
503263.00
 20
1143896.00
  0
VERTEX
  8
VIRTUAL_SEGMENT_TOWNSHIP
 10
503283.00
 20
1143904.00
  0
VERTEX
  8
VIRTUAL_SEGMENT_TOWNSHIP
 10
503290.00
 20
1143918.00
  0
VERTEX
  8
VIRTUAL_SEGMENT_TOWNSHIP
 10
503298.00
 20
1143930.00
  0
VERTEX
  8
VIRTUAL_SEGMENT_TOWNSHIP
 10
503305.00
 20
1143940.00
  0
VERTEX
  8
VIRTUAL_SEGMENT_TOWNSHIP
 10
503317.00
 20
1143945.00
  0
VERTEX
  8
VIRTUAL_SEGMENT_TOWNSHIP
 10
503330.00
 20
1143956.00
  0
VERTEX
  8
VIRTUAL_SEGMENT_TOWNSHIP
 10
503336.00
 20
1143971.00
  0
VERTEX
  8
VIRTUAL_SEGMENT_TOWNSHIP
 10
503327.00
 20
1143987.00
  0
VERTEX
  8
VIRTUAL_SEGMENT_TOWNSHIP
 10
503318.00
 20
1143993.00
  0
VERTEX
  8
VIRTUAL_SEGMENT_TOWNSHIP
 10
503318.00
 20
1144005.00
  0
VERTEX
  8
VIRTUAL_SEGMENT_TOWNSHIP
 10
503323.00
 20
1144019.00
  0
VERTEX
  8
VIRTUAL_SEGMENT_TOWNSHIP
 10
503323.00
 20
1144028.00
  0
VERTEX
  8
VIRTUAL_SEGMENT_TOWNSHIP
 10
503311.00
 20
1144032.00
  0
VERTEX
  8
VIRTUAL_SEGMENT_TOWNSHIP
 10
503298.00
 20
1144042.00
  0
VERTEX
  8
VIRTUAL_SEGMENT_TOWNSHIP
 10
503291.00
 20
1144051.00
  0
VERTEX
  8
VIRTUAL_SEGMENT_TOWNSHIP
 10
503290.00
 20
1144065.00
  0
VERTEX
  8
VIRTUAL_SEGMENT_TOWNSHIP
 10
503301.00
 20
1144071.00
  0
VERTEX
  8
VIRTUAL_SEGMENT_TOWNSHIP
 10
503318.00
 20
1144067.00
  0
VERTEX
  8
VIRTUAL_SEGMENT_TOWNSHIP
 10
503334.00
 20
1144066.00
  0
VERTEX
  8
VIRTUAL_SEGMENT_TOWNSHIP
 10
503351.00
 20
1144067.00
  0
VERTEX
  8
VIRTUAL_SEGMENT_TOWNSHIP
 10
503362.00
 20
1144076.00
  0
VERTEX
  8
VIRTUAL_SEGMENT_TOWNSHIP
 10
503368.00
 20
1144079.00
  0
VERTEX
  8
VIRTUAL_SEGMENT_TOWNSHIP
 10
503388.00
 20
1144059.00
  0
VERTEX
  8
VIRTUAL_SEGMENT_TOWNSHIP
 10
503387.00
 20
1144044.00
  0
VERTEX
  8
VIRTUAL_SEGMENT_TOWNSHIP
 10
503393.00
 20
1144032.00
  0
VERTEX
  8
VIRTUAL_SEGMENT_TOWNSHIP
 10
503406.00
 20
1144026.00
  0
VERTEX
  8
VIRTUAL_SEGMENT_TOWNSHIP
 10
503412.00
 20
1144035.00
  0
VERTEX
  8
VIRTUAL_SEGMENT_TOWNSHIP
 10
503421.00
 20
1144038.00
  0
VERTEX
  8
VIRTUAL_SEGMENT_TOWNSHIP
 10
503438.00
 20
1144037.00
  0
VERTEX
  8
VIRTUAL_SEGMENT_TOWNSHIP
 10
503463.00
 20
1144037.00
  0
VERTEX
  8
VIRTUAL_SEGMENT_TOWNSHIP
 10
503480.00
 20
1144032.00
  0
VERTEX
  8
VIRTUAL_SEGMENT_TOWNSHIP
 10
503490.00
 20
1144025.00
  0
VERTEX
  8
VIRTUAL_SEGMENT_TOWNSHIP
 10
503497.00
 20
1144024.00
  0
VERTEX
  8
VIRTUAL_SEGMENT_TOWNSHIP
 10
503503.00
 20
1144025.00
  0
SEQEND
  8
VIRTUAL_SEGMENT_TOWNSHIP
  0
POLYLINE
  8
VIRTUAL_SEGMENT_TOWNSHIP
 66
     1
 62
    14
  6
CONTINUOUS
  0
VERTEX
  8
VIRTUAL_SEGMENT_TOWNSHIP
 10
502737.00
 20
1143806.00
  0
VERTEX
  8
VIRTUAL_SEGMENT_TOWNSHIP
 10
502732.00
 20
1143817.00
  0
VERTEX
  8
VIRTUAL_SEGMENT_TOWNSHIP
 10
502732.00
 20
1143837.00
  0
VERTEX
  8
VIRTUAL_SEGMENT_TOWNSHIP
 10
502748.00
 20
1143851.00
  0
VERTEX
  8
VIRTUAL_SEGMENT_TOWNSHIP
 10
502768.00
 20
1143871.00
  0
VERTEX
  8
VIRTUAL_SEGMENT_TOWNSHIP
 10
502785.00
 20
1143894.00
  0
VERTEX
  8
VIRTUAL_SEGMENT_TOWNSHIP
 10
502804.00
 20
1143922.00
  0
VERTEX
  8
VIRTUAL_SEGMENT_TOWNSHIP
 10
502812.00
 20
1143945.00
  0
VERTEX
  8
VIRTUAL_SEGMENT_TOWNSHIP
 10
502812.00
 20
1143957.00
  0
VERTEX
  8
VIRTUAL_SEGMENT_TOWNSHIP
 10
502801.00
 20
1143974.00
  0
VERTEX
  8
VIRTUAL_SEGMENT_TOWNSHIP
 10
502782.00
 20
1143972.00
  0
VERTEX
  8
VIRTUAL_SEGMENT_TOWNSHIP
 10
502767.00
 20
1143979.00
  0
VERTEX
  8
VIRTUAL_SEGMENT_TOWNSHIP
 10
502769.00
 20
1143996.00
  0
VERTEX
  8
VIRTUAL_SEGMENT_TOWNSHIP
 10
502769.00
 20
1144005.00
  0
VERTEX
  8
VIRTUAL_SEGMENT_TOWNSHIP
 10
502755.00
 20
1144014.00
  0
VERTEX
  8
VIRTUAL_SEGMENT_TOWNSHIP
 10
502740.00
 20
1144021.00
  0
VERTEX
  8
VIRTUAL_SEGMENT_TOWNSHIP
 10
502744.00
 20
1144036.00
  0
VERTEX
  8
VIRTUAL_SEGMENT_TOWNSHIP
 10
502747.00
 20
1144053.00
  0
VERTEX
  8
VIRTUAL_SEGMENT_TOWNSHIP
 10
502745.00
 20
1144067.00
  0
VERTEX
  8
VIRTUAL_SEGMENT_TOWNSHIP
 10
502738.00
 20
1144081.00
  0
VERTEX
  8
VIRTUAL_SEGMENT_TOWNSHIP
 10
502728.00
 20
1144090.00
  0
VERTEX
  8
VIRTUAL_SEGMENT_TOWNSHIP
 10
502718.00
 20
1144096.00
  0
VERTEX
  8
VIRTUAL_SEGMENT_TOWNSHIP
 10
502702.00
 20
1144091.00
  0
VERTEX
  8
VIRTUAL_SEGMENT_TOWNSHIP
 10
502700.00
 20
1144090.00
  0
SEQEND
  8
VIRTUAL_SEGMENT_TOWNSHIP
  0
POLYLINE
  8
BDRY_TWP
 66
     1
 62
     4
  6
CONTINUOUS
  0
VERTEX
  8
BDRY_TWP
 10
502701.00
 20
1143806.00
  0
VERTEX
  8
BDRY_TWP
 10
502726.00
 20
1143806.00
  0
VERTEX
  8
BDRY_TWP
 10
502737.00
 20
1143806.00
  0
SEQEND
  8
BDRY_TWP
  0
POLYLINE
  8
BDRY_TWP
 66
     1
 62
     4
  6
CONTINUOUS
  0
VERTEX
  8
BDRY_TWP
 10
500694.00
 20
1143796.00
  0
VERTEX
  8
BDRY_TWP
 10
501130.00
 20
1143800.00
  0
SEQEND
  8
BDRY_TWP
  0
POLYLINE
  8
VIRTUAL_SEGMENT_TOWNSHIP
 66
     1
 62
    14
  6
CONTINUOUS
  0
VERTEX
  8
VIRTUAL_SEGMENT_TOWNSHIP
 10
504314.00
 20
1143777.00
  0
VERTEX
  8
VIRTUAL_SEGMENT_TOWNSHIP
 10
504312.00
 20
1143775.00
  0
VERTEX
  8
VIRTUAL_SEGMENT_TOWNSHIP
 10
504300.00
 20
1143772.00
  0
VERTEX
  8
VIRTUAL_SEGMENT_TOWNSHIP
 10
504294.00
 20
1143761.00
  0
VERTEX
  8
VIRTUAL_SEGMENT_TOWNSHIP
 10
504282.00
 20
1143737.00
  0
VERTEX
  8
VIRTUAL_SEGMENT_TOWNSHIP
 10
504282.00
 20
1143707.00
  0
VERTEX
  8
VIRTUAL_SEGMENT_TOWNSHIP
 10
504272.00
 20
1143686.00
  0
VERTEX
  8
VIRTUAL_SEGMENT_TOWNSHIP
 10
504266.00
 20
1143668.00
  0
VERTEX
  8
VIRTUAL_SEGMENT_TOWNSHIP
 10
504262.00
 20
1143646.00
  0
VERTEX
  8
VIRTUAL_SEGMENT_TOWNSHIP
 10
504264.00
 20
1143629.00
  0
VERTEX
  8
VIRTUAL_SEGMENT_TOWNSHIP
 10
504270.00
 20
1143627.00
  0
VERTEX
  8
VIRTUAL_SEGMENT_TOWNSHIP
 10
504282.00
 20
1143639.00
  0
VERTEX
  8
VIRTUAL_SEGMENT_TOWNSHIP
 10
504296.00
 20
1143652.00
  0
VERTEX
  8
VIRTUAL_SEGMENT_TOWNSHIP
 10
504305.00
 20
1143666.00
  0
VERTEX
  8
VIRTUAL_SEGMENT_TOWNSHIP
 10
504309.00
 20
1143671.00
  0
SEQEND
  8
VIRTUAL_SEGMENT_TOWNSHIP
  0
POLYLINE
  8
VIRTUAL_SEGMENT_TOWNSHIP
 66
     1
 62
    14
  6
CONTINUOUS
  0
VERTEX
  8
VIRTUAL_SEGMENT_TOWNSHIP
 10
504306.00
 20
1143537.00
  0
VERTEX
  8
VIRTUAL_SEGMENT_TOWNSHIP
 10
504298.00
 20
1143528.00
  0
VERTEX
  8
VIRTUAL_SEGMENT_TOWNSHIP
 10
504291.00
 20
1143505.00
  0
VERTEX
  8
VIRTUAL_SEGMENT_TOWNSHIP
 10
504276.00
 20
1143476.00
  0
VERTEX
  8
VIRTUAL_SEGMENT_TOWNSHIP
 10
504268.00
 20
1143449.00
  0
VERTEX
  8
VIRTUAL_SEGMENT_TOWNSHIP
 10
504264.00
 20
1143434.00
  0
VERTEX
  8
VIRTUAL_SEGMENT_TOWNSHIP
 10
504261.00
 20
1143416.00
  0
VERTEX
  8
VIRTUAL_SEGMENT_TOWNSHIP
 10
504268.00
 20
1143399.00
  0
VERTEX
  8
VIRTUAL_SEGMENT_TOWNSHIP
 10
504271.00
 20
1143390.00
  0
VERTEX
  8
VIRTUAL_SEGMENT_TOWNSHIP
 10
504278.00
 20
1143393.00
  0
VERTEX
  8
VIRTUAL_SEGMENT_TOWNSHIP
 10
504286.00
 20
1143405.00
  0
VERTEX
  8
VIRTUAL_SEGMENT_TOWNSHIP
 10
504293.00
 20
1143407.00
  0
VERTEX
  8
VIRTUAL_SEGMENT_TOWNSHIP
 10
504299.00
 20
1143400.00
  0
SEQEND
  8
VIRTUAL_SEGMENT_TOWNSHIP
  0
POLYLINE
  8
VIRTUAL_SEGMENT_TOWNSHIP
 66
     1
 62
    14
  6
CONTINUOUS
  0
VERTEX
  8
VIRTUAL_SEGMENT_TOWNSHIP
 10
504293.00
 20
1143218.00
  0
VERTEX
  8
VIRTUAL_SEGMENT_TOWNSHIP
 10
504292.00
 20
1143218.00
  0
VERTEX
  8
VIRTUAL_SEGMENT_TOWNSHIP
 10
504287.00
 20
1143226.00
  0
VERTEX
  8
VIRTUAL_SEGMENT_TOWNSHIP
 10
504286.00
 20
1143240.00
  0
VERTEX
  8
VIRTUAL_SEGMENT_TOWNSHIP
 10
504278.00
 20
1143248.00
  0
VERTEX
  8
VIRTUAL_SEGMENT_TOWNSHIP
 10
504263.00
 20
1143249.00
  0
VERTEX
  8
VIRTUAL_SEGMENT_TOWNSHIP
 10
504243.00
 20
1143247.00
  0
VERTEX
  8
VIRTUAL_SEGMENT_TOWNSHIP
 10
504235.00
 20
1143246.00
  0
VERTEX
  8
VIRTUAL_SEGMENT_TOWNSHIP
 10
504224.00
 20
1143253.00
  0
VERTEX
  8
VIRTUAL_SEGMENT_TOWNSHIP
 10
504216.00
 20
1143262.00
  0
VERTEX
  8
VIRTUAL_SEGMENT_TOWNSHIP
 10
504203.00
 20
1143264.00
  0
VERTEX
  8
VIRTUAL_SEGMENT_TOWNSHIP
 10
504187.00
 20
1143255.00
  0
VERTEX
  8
VIRTUAL_SEGMENT_TOWNSHIP
 10
504173.00
 20
1143249.00
  0
VERTEX
  8
VIRTUAL_SEGMENT_TOWNSHIP
 10
504164.00
 20
1143248.00
  0
VERTEX
  8
VIRTUAL_SEGMENT_TOWNSHIP
 10
504159.00
 20
1143253.00
  0
VERTEX
  8
VIRTUAL_SEGMENT_TOWNSHIP
 10
504150.00
 20
1143261.00
  0
VERTEX
  8
VIRTUAL_SEGMENT_TOWNSHIP
 10
504128.00
 20
1143265.00
  0
VERTEX
  8
VIRTUAL_SEGMENT_TOWNSHIP
 10
504094.00
 20
1143266.00
  0
VERTEX
  8
VIRTUAL_SEGMENT_TOWNSHIP
 10
504074.00
 20
1143265.00
  0
VERTEX
  8
VIRTUAL_SEGMENT_TOWNSHIP
 10
504059.00
 20
1143267.00
  0
VERTEX
  8
VIRTUAL_SEGMENT_TOWNSHIP
 10
504066.00
 20
1143271.00
  0
VERTEX
  8
VIRTUAL_SEGMENT_TOWNSHIP
 10
504076.00
 20
1143284.00
  0
VERTEX
  8
VIRTUAL_SEGMENT_TOWNSHIP
 10
504087.00
 20
1143304.00
  0
VERTEX
  8
VIRTUAL_SEGMENT_TOWNSHIP
 10
504094.00
 20
1143321.00
  0
VERTEX
  8
VIRTUAL_SEGMENT_TOWNSHIP
 10
504090.00
 20
1143346.00
  0
VERTEX
  8
VIRTUAL_SEGMENT_TOWNSHIP
 10
504086.00
 20
1143384.00
  0
VERTEX
  8
VIRTUAL_SEGMENT_TOWNSHIP
 10
504088.00
 20
1143401.00
  0
VERTEX
  8
VIRTUAL_SEGMENT_TOWNSHIP
 10
504093.00
 20
1143415.00
  0
VERTEX
  8
VIRTUAL_SEGMENT_TOWNSHIP
 10
504097.00
 20
1143428.00
  0
VERTEX
  8
VIRTUAL_SEGMENT_TOWNSHIP
 10
504092.00
 20
1143442.00
  0
VERTEX
  8
VIRTUAL_SEGMENT_TOWNSHIP
 10
504088.00
 20
1143452.00
  0
VERTEX
  8
VIRTUAL_SEGMENT_TOWNSHIP
 10
504090.00
 20
1143464.00
  0
VERTEX
  8
VIRTUAL_SEGMENT_TOWNSHIP
 10
504100.00
 20
1143477.00
  0
VERTEX
  8
VIRTUAL_SEGMENT_TOWNSHIP
 10
504118.00
 20
1143489.00
  0
VERTEX
  8
VIRTUAL_SEGMENT_TOWNSHIP
 10
504126.00
 20
1143503.00
  0
VERTEX
  8
VIRTUAL_SEGMENT_TOWNSHIP
 10
504131.00
 20
1143521.00
  0
VERTEX
  8
VIRTUAL_SEGMENT_TOWNSHIP
 10
504144.00
 20
1143541.00
  0
VERTEX
  8
VIRTUAL_SEGMENT_TOWNSHIP
 10
504158.00
 20
1143544.00
  0
VERTEX
  8
VIRTUAL_SEGMENT_TOWNSHIP
 10
504170.00
 20
1143552.00
  0
VERTEX
  8
VIRTUAL_SEGMENT_TOWNSHIP
 10
504178.00
 20
1143555.00
  0
VERTEX
  8
VIRTUAL_SEGMENT_TOWNSHIP
 10
504180.00
 20
1143566.00
  0
VERTEX
  8
VIRTUAL_SEGMENT_TOWNSHIP
 10
504180.00
 20
1143587.00
  0
VERTEX
  8
VIRTUAL_SEGMENT_TOWNSHIP
 10
504177.00
 20
1143601.00
  0
VERTEX
  8
VIRTUAL_SEGMENT_TOWNSHIP
 10
504177.00
 20
1143614.00
  0
VERTEX
  8
VIRTUAL_SEGMENT_TOWNSHIP
 10
504187.00
 20
1143630.00
  0
VERTEX
  8
VIRTUAL_SEGMENT_TOWNSHIP
 10
504195.00
 20
1143655.00
  0
VERTEX
  8
VIRTUAL_SEGMENT_TOWNSHIP
 10
504203.00
 20
1143676.00
  0
VERTEX
  8
VIRTUAL_SEGMENT_TOWNSHIP
 10
504207.00
 20
1143689.00
  0
VERTEX
  8
VIRTUAL_SEGMENT_TOWNSHIP
 10
504205.00
 20
1143707.00
  0
VERTEX
  8
VIRTUAL_SEGMENT_TOWNSHIP
 10
504199.00
 20
1143732.00
  0
VERTEX
  8
VIRTUAL_SEGMENT_TOWNSHIP
 10
504190.00
 20
1143750.00
  0
VERTEX
  8
VIRTUAL_SEGMENT_TOWNSHIP
 10
504181.00
 20
1143757.00
  0
VERTEX
  8
VIRTUAL_SEGMENT_TOWNSHIP
 10
504172.00
 20
1143760.00
  0
VERTEX
  8
VIRTUAL_SEGMENT_TOWNSHIP
 10
504158.00
 20
1143758.00
  0
VERTEX
  8
VIRTUAL_SEGMENT_TOWNSHIP
 10
504149.00
 20
1143750.00
  0
VERTEX
  8
VIRTUAL_SEGMENT_TOWNSHIP
 10
504148.00
 20
1143736.00
  0
VERTEX
  8
VIRTUAL_SEGMENT_TOWNSHIP
 10
504139.00
 20
1143720.00
  0
VERTEX
  8
VIRTUAL_SEGMENT_TOWNSHIP
 10
504127.00
 20
1143716.00
  0
VERTEX
  8
VIRTUAL_SEGMENT_TOWNSHIP
 10
504108.00
 20
1143716.00
  0
VERTEX
  8
VIRTUAL_SEGMENT_TOWNSHIP
 10
504091.00
 20
1143715.00
  0
VERTEX
  8
VIRTUAL_SEGMENT_TOWNSHIP
 10
504084.00
 20
1143704.00
  0
VERTEX
  8
VIRTUAL_SEGMENT_TOWNSHIP
 10
504080.00
 20
1143694.00
  0
VERTEX
  8
VIRTUAL_SEGMENT_TOWNSHIP
 10
504072.00
 20
1143688.00
  0
VERTEX
  8
VIRTUAL_SEGMENT_TOWNSHIP
 10
504058.00
 20
1143683.00
  0
VERTEX
  8
VIRTUAL_SEGMENT_TOWNSHIP
 10
504046.00
 20
1143684.00
  0
VERTEX
  8
VIRTUAL_SEGMENT_TOWNSHIP
 10
504040.00
 20
1143692.00
  0
VERTEX
  8
VIRTUAL_SEGMENT_TOWNSHIP
 10
504031.00
 20
1143707.00
  0
VERTEX
  8
VIRTUAL_SEGMENT_TOWNSHIP
 10
503977.00
 20
1143713.00
  0
VERTEX
  8
VIRTUAL_SEGMENT_TOWNSHIP
 10
503929.00
 20
1143710.00
  0
VERTEX
  8
VIRTUAL_SEGMENT_TOWNSHIP
 10
503895.00
 20
1143706.00
  0
VERTEX
  8
VIRTUAL_SEGMENT_TOWNSHIP
 10
503872.00
 20
1143702.00
  0
VERTEX
  8
VIRTUAL_SEGMENT_TOWNSHIP
 10
503853.00
 20
1143694.00
  0
VERTEX
  8
VIRTUAL_SEGMENT_TOWNSHIP
 10
503834.00
 20
1143688.00
  0
VERTEX
  8
VIRTUAL_SEGMENT_TOWNSHIP
 10
503808.00
 20
1143686.00
  0
VERTEX
  8
VIRTUAL_SEGMENT_TOWNSHIP
 10
503780.00
 20
1143689.00
  0
VERTEX
  8
VIRTUAL_SEGMENT_TOWNSHIP
 10
503756.00
 20
1143690.00
  0
VERTEX
  8
VIRTUAL_SEGMENT_TOWNSHIP
 10
503742.00
 20
1143688.00
  0
VERTEX
  8
VIRTUAL_SEGMENT_TOWNSHIP
 10
503722.00
 20
1143678.00
  0
VERTEX
  8
VIRTUAL_SEGMENT_TOWNSHIP
 10
503710.00
 20
1143662.00
  0
VERTEX
  8
VIRTUAL_SEGMENT_TOWNSHIP
 10
503699.00
 20
1143646.00
  0
VERTEX
  8
VIRTUAL_SEGMENT_TOWNSHIP
 10
503687.00
 20
1143629.00
  0
VERTEX
  8
VIRTUAL_SEGMENT_TOWNSHIP
 10
503679.00
 20
1143617.00
  0
VERTEX
  8
VIRTUAL_SEGMENT_TOWNSHIP
 10
503671.00
 20
1143608.00
  0
VERTEX
  8
VIRTUAL_SEGMENT_TOWNSHIP
 10
503662.00
 20
1143606.00
  0
VERTEX
  8
VIRTUAL_SEGMENT_TOWNSHIP
 10
503655.00
 20
1143609.00
  0
VERTEX
  8
VIRTUAL_SEGMENT_TOWNSHIP
 10
503649.00
 20
1143618.00
  0
VERTEX
  8
VIRTUAL_SEGMENT_TOWNSHIP
 10
503652.00
 20
1143629.00
  0
VERTEX
  8
VIRTUAL_SEGMENT_TOWNSHIP
 10
503654.00
 20
1143640.00
  0
VERTEX
  8
VIRTUAL_SEGMENT_TOWNSHIP
 10
503646.00
 20
1143651.00
  0
VERTEX
  8
VIRTUAL_SEGMENT_TOWNSHIP
 10
503616.00
 20
1143655.00
  0
VERTEX
  8
VIRTUAL_SEGMENT_TOWNSHIP
 10
503596.00
 20
1143657.00
  0
VERTEX
  8
VIRTUAL_SEGMENT_TOWNSHIP
 10
503580.00
 20
1143660.00
  0
VERTEX
  8
VIRTUAL_SEGMENT_TOWNSHIP
 10
503565.00
 20
1143656.00
  0
VERTEX
  8
VIRTUAL_SEGMENT_TOWNSHIP
 10
503552.00
 20
1143647.00
  0
VERTEX
  8
VIRTUAL_SEGMENT_TOWNSHIP
 10
503539.00
 20
1143640.00
  0
VERTEX
  8
VIRTUAL_SEGMENT_TOWNSHIP
 10
503528.00
 20
1143634.00
  0
VERTEX
  8
VIRTUAL_SEGMENT_TOWNSHIP
 10
503520.00
 20
1143617.00
  0
VERTEX
  8
VIRTUAL_SEGMENT_TOWNSHIP
 10
503514.00
 20
1143602.00
  0
VERTEX
  8
VIRTUAL_SEGMENT_TOWNSHIP
 10
503503.00
 20
1143581.00
  0
VERTEX
  8
VIRTUAL_SEGMENT_TOWNSHIP
 10
503492.00
 20
1143566.00
  0
VERTEX
  8
VIRTUAL_SEGMENT_TOWNSHIP
 10
503478.00
 20
1143552.00
  0
VERTEX
  8
VIRTUAL_SEGMENT_TOWNSHIP
 10
503461.00
 20
1143537.00
  0
VERTEX
  8
VIRTUAL_SEGMENT_TOWNSHIP
 10
503446.00
 20
1143525.00
  0
VERTEX
  8
VIRTUAL_SEGMENT_TOWNSHIP
 10
503432.00
 20
1143516.00
  0
VERTEX
  8
VIRTUAL_SEGMENT_TOWNSHIP
 10
503426.00
 20
1143505.00
  0
VERTEX
  8
VIRTUAL_SEGMENT_TOWNSHIP
 10
503422.00
 20
1143498.00
  0
VERTEX
  8
VIRTUAL_SEGMENT_TOWNSHIP
 10
503413.00
 20
1143490.00
  0
VERTEX
  8
VIRTUAL_SEGMENT_TOWNSHIP
 10
503402.00
 20
1143484.00
  0
VERTEX
  8
VIRTUAL_SEGMENT_TOWNSHIP
 10
503389.00
 20
1143478.00
  0
VERTEX
  8
VIRTUAL_SEGMENT_TOWNSHIP
 10
503383.00
 20
1143483.00
  0
VERTEX
  8
VIRTUAL_SEGMENT_TOWNSHIP
 10
503373.00
 20
1143488.00
  0
VERTEX
  8
VIRTUAL_SEGMENT_TOWNSHIP
 10
503362.00
 20
1143484.00
  0
VERTEX
  8
VIRTUAL_SEGMENT_TOWNSHIP
 10
503356.00
 20
1143460.00
  0
VERTEX
  8
VIRTUAL_SEGMENT_TOWNSHIP
 10
503349.00
 20
1143439.00
  0
VERTEX
  8
VIRTUAL_SEGMENT_TOWNSHIP
 10
503342.00
 20
1143425.00
  0
VERTEX
  8
VIRTUAL_SEGMENT_TOWNSHIP
 10
503331.00
 20
1143412.00
  0
VERTEX
  8
VIRTUAL_SEGMENT_TOWNSHIP
 10
503313.00
 20
1143406.00
  0
VERTEX
  8
VIRTUAL_SEGMENT_TOWNSHIP
 10
503302.00
 20
1143409.00
  0
VERTEX
  8
VIRTUAL_SEGMENT_TOWNSHIP
 10
503289.00
 20
1143410.00
  0
VERTEX
  8
VIRTUAL_SEGMENT_TOWNSHIP
 10
503276.00
 20
1143409.00
  0
VERTEX
  8
VIRTUAL_SEGMENT_TOWNSHIP
 10
503272.00
 20
1143401.00
  0
VERTEX
  8
VIRTUAL_SEGMENT_TOWNSHIP
 10
503272.00
 20
1143389.00
  0
VERTEX
  8
VIRTUAL_SEGMENT_TOWNSHIP
 10
503269.00
 20
1143383.00
  0
VERTEX
  8
VIRTUAL_SEGMENT_TOWNSHIP
 10
503261.00
 20
1143377.00
  0
VERTEX
  8
VIRTUAL_SEGMENT_TOWNSHIP
 10
503246.00
 20
1143372.00
  0
VERTEX
  8
VIRTUAL_SEGMENT_TOWNSHIP
 10
503229.00
 20
1143365.00
  0
VERTEX
  8
VIRTUAL_SEGMENT_TOWNSHIP
 10
503216.00
 20
1143368.00
  0
VERTEX
  8
VIRTUAL_SEGMENT_TOWNSHIP
 10
503204.00
 20
1143369.00
  0
VERTEX
  8
VIRTUAL_SEGMENT_TOWNSHIP
 10
503193.00
 20
1143366.00
  0
VERTEX
  8
VIRTUAL_SEGMENT_TOWNSHIP
 10
503181.00
 20
1143360.00
  0
VERTEX
  8
VIRTUAL_SEGMENT_TOWNSHIP
 10
503168.00
 20
1143352.00
  0
VERTEX
  8
VIRTUAL_SEGMENT_TOWNSHIP
 10
503155.00
 20
1143344.00
  0
VERTEX
  8
VIRTUAL_SEGMENT_TOWNSHIP
 10
503144.00
 20
1143342.00
  0
VERTEX
  8
VIRTUAL_SEGMENT_TOWNSHIP
 10
503132.00
 20
1143345.00
  0
VERTEX
  8
VIRTUAL_SEGMENT_TOWNSHIP
 10
503117.00
 20
1143344.00
  0
SEQEND
  8
VIRTUAL_SEGMENT_TOWNSHIP
  0
POLYLINE
  8
VIRTUAL_SEGMENT_TOWNSHIP
 66
     1
 62
    14
  6
CONTINUOUS
  0
VERTEX
  8
VIRTUAL_SEGMENT_TOWNSHIP
 10
502312.00
 20
1143107.00
  0
VERTEX
  8
VIRTUAL_SEGMENT_TOWNSHIP
 10
502314.00
 20
1143119.00
  0
VERTEX
  8
VIRTUAL_SEGMENT_TOWNSHIP
 10
502326.00
 20
1143145.00
  0
VERTEX
  8
VIRTUAL_SEGMENT_TOWNSHIP
 10
502327.00
 20
1143169.00
  0
VERTEX
  8
VIRTUAL_SEGMENT_TOWNSHIP
 10
502332.00
 20
1143195.00
  0
VERTEX
  8
VIRTUAL_SEGMENT_TOWNSHIP
 10
502341.00
 20
1143228.00
  0
VERTEX
  8
VIRTUAL_SEGMENT_TOWNSHIP
 10
502358.00
 20
1143265.00
  0
VERTEX
  8
VIRTUAL_SEGMENT_TOWNSHIP
 10
502380.00
 20
1143297.00
  0
VERTEX
  8
VIRTUAL_SEGMENT_TOWNSHIP
 10
502397.00
 20
1143321.00
  0
VERTEX
  8
VIRTUAL_SEGMENT_TOWNSHIP
 10
502426.00
 20
1143346.00
  0
VERTEX
  8
VIRTUAL_SEGMENT_TOWNSHIP
 10
502456.00
 20
1143371.00
  0
VERTEX
  8
VIRTUAL_SEGMENT_TOWNSHIP
 10
502481.00
 20
1143391.00
  0
VERTEX
  8
VIRTUAL_SEGMENT_TOWNSHIP
 10
502499.00
 20
1143411.00
  0
VERTEX
  8
VIRTUAL_SEGMENT_TOWNSHIP
 10
502515.00
 20
1143438.00
  0
VERTEX
  8
VIRTUAL_SEGMENT_TOWNSHIP
 10
502527.00
 20
1143454.00
  0
VERTEX
  8
VIRTUAL_SEGMENT_TOWNSHIP
 10
502543.00
 20
1143472.00
  0
VERTEX
  8
VIRTUAL_SEGMENT_TOWNSHIP
 10
502555.00
 20
1143485.00
  0
VERTEX
  8
VIRTUAL_SEGMENT_TOWNSHIP
 10
502568.00
 20
1143506.00
  0
VERTEX
  8
VIRTUAL_SEGMENT_TOWNSHIP
 10
502570.00
 20
1143522.00
  0
VERTEX
  8
VIRTUAL_SEGMENT_TOWNSHIP
 10
502572.00
 20
1143538.00
  0
VERTEX
  8
VIRTUAL_SEGMENT_TOWNSHIP
 10
502574.00
 20
1143542.00
  0
VERTEX
  8
VIRTUAL_SEGMENT_TOWNSHIP
 10
502587.00
 20
1143549.00
  0
VERTEX
  8
VIRTUAL_SEGMENT_TOWNSHIP
 10
502600.00
 20
1143553.00
  0
VERTEX
  8
VIRTUAL_SEGMENT_TOWNSHIP
 10
502604.00
 20
1143561.00
  0
VERTEX
  8
VIRTUAL_SEGMENT_TOWNSHIP
 10
502605.00
 20
1143570.00
  0
VERTEX
  8
VIRTUAL_SEGMENT_TOWNSHIP
 10
502614.00
 20
1143571.00
  0
VERTEX
  8
VIRTUAL_SEGMENT_TOWNSHIP
 10
502623.00
 20
1143570.00
  0
VERTEX
  8
VIRTUAL_SEGMENT_TOWNSHIP
 10
502630.00
 20
1143575.00
  0
VERTEX
  8
VIRTUAL_SEGMENT_TOWNSHIP
 10
502632.00
 20
1143584.00
  0
VERTEX
  8
VIRTUAL_SEGMENT_TOWNSHIP
 10
502635.00
 20
1143596.00
  0
VERTEX
  8
VIRTUAL_SEGMENT_TOWNSHIP
 10
502641.00
 20
1143598.00
  0
VERTEX
  8
VIRTUAL_SEGMENT_TOWNSHIP
 10
502659.00
 20
1143600.00
  0
VERTEX
  8
VIRTUAL_SEGMENT_TOWNSHIP
 10
502670.00
 20
1143607.00
  0
VERTEX
  8
VIRTUAL_SEGMENT_TOWNSHIP
 10
502676.00
 20
1143615.00
  0
VERTEX
  8
VIRTUAL_SEGMENT_TOWNSHIP
 10
502681.00
 20
1143623.00
  0
VERTEX
  8
VIRTUAL_SEGMENT_TOWNSHIP
 10
502696.00
 20
1143628.00
  0
VERTEX
  8
VIRTUAL_SEGMENT_TOWNSHIP
 10
502706.00
 20
1143631.00
  0
VERTEX
  8
VIRTUAL_SEGMENT_TOWNSHIP
 10
502713.00
 20
1143640.00
  0
VERTEX
  8
VIRTUAL_SEGMENT_TOWNSHIP
 10
502711.00
 20
1143653.00
  0
VERTEX
  8
VIRTUAL_SEGMENT_TOWNSHIP
 10
502717.00
 20
1143658.00
  0
VERTEX
  8
VIRTUAL_SEGMENT_TOWNSHIP
 10
502725.00
 20
1143665.00
  0
VERTEX
  8
VIRTUAL_SEGMENT_TOWNSHIP
 10
502734.00
 20
1143662.00
  0
VERTEX
  8
VIRTUAL_SEGMENT_TOWNSHIP
 10
502744.00
 20
1143670.00
  0
VERTEX
  8
VIRTUAL_SEGMENT_TOWNSHIP
 10
502748.00
 20
1143681.00
  0
VERTEX
  8
VIRTUAL_SEGMENT_TOWNSHIP
 10
502749.00
 20
1143694.00
  0
VERTEX
  8
VIRTUAL_SEGMENT_TOWNSHIP
 10
502750.00
 20
1143704.00
  0
VERTEX
  8
VIRTUAL_SEGMENT_TOWNSHIP
 10
502747.00
 20
1143715.00
  0
VERTEX
  8
VIRTUAL_SEGMENT_TOWNSHIP
 10
502732.00
 20
1143722.00
  0
VERTEX
  8
VIRTUAL_SEGMENT_TOWNSHIP
 10
502726.00
 20
1143725.00
  0
VERTEX
  8
VIRTUAL_SEGMENT_TOWNSHIP
 10
502722.00
 20
1143745.00
  0
VERTEX
  8
VIRTUAL_SEGMENT_TOWNSHIP
 10
502721.00
 20
1143760.00
  0
VERTEX
  8
VIRTUAL_SEGMENT_TOWNSHIP
 10
502721.00
 20
1143766.00
  0
VERTEX
  8
VIRTUAL_SEGMENT_TOWNSHIP
 10
502738.00
 20
1143782.00
  0
VERTEX
  8
VIRTUAL_SEGMENT_TOWNSHIP
 10
502740.00
 20
1143799.00
  0
VERTEX
  8
VIRTUAL_SEGMENT_TOWNSHIP
 10
502737.00
 20
1143806.00
  0
SEQEND
  8
VIRTUAL_SEGMENT_TOWNSHIP
  0
POLYLINE
  8
BDRY_TWP_LOT-SURVEYED
 66
     1
 62
     2
  6
DASHDOT2
  0
VERTEX
  8
BDRY_TWP_LOT-SURVEYED
 10
507535.00
 20
1143054.00
  0
VERTEX
  8
BDRY_TWP_LOT-SURVEYED
 10
507534.00
 20
1143149.00
  0
SEQEND
  8
BDRY_TWP_LOT-SURVEYED
  0
POLYLINE
  8
VIRTUAL_SEGMENT_TOWNSHIP
 66
     1
 62
    14
  6
CONTINUOUS
  0
VERTEX
  8
VIRTUAL_SEGMENT_TOWNSHIP
 10
503117.00
 20
1143344.00
  0
VERTEX
  8
VIRTUAL_SEGMENT_TOWNSHIP
 10
503116.00
 20
1143344.00
  0
VERTEX
  8
VIRTUAL_SEGMENT_TOWNSHIP
 10
503097.00
 20
1143342.00
  0
VERTEX
  8
VIRTUAL_SEGMENT_TOWNSHIP
 10
503081.00
 20
1143339.00
  0
VERTEX
  8
VIRTUAL_SEGMENT_TOWNSHIP
 10
503067.00
 20
1143331.00
  0
VERTEX
  8
VIRTUAL_SEGMENT_TOWNSHIP
 10
503054.00
 20
1143317.00
  0
VERTEX
  8
VIRTUAL_SEGMENT_TOWNSHIP
 10
503045.00
 20
1143308.00
  0
VERTEX
  8
VIRTUAL_SEGMENT_TOWNSHIP
 10
503030.00
 20
1143298.00
  0
VERTEX
  8
VIRTUAL_SEGMENT_TOWNSHIP
 10
503011.00
 20
1143294.00
  0
VERTEX
  8
VIRTUAL_SEGMENT_TOWNSHIP
 10
502990.00
 20
1143284.00
  0
VERTEX
  8
VIRTUAL_SEGMENT_TOWNSHIP
 10
502955.00
 20
1143267.00
  0
VERTEX
  8
VIRTUAL_SEGMENT_TOWNSHIP
 10
502940.00
 20
1143252.00
  0
VERTEX
  8
VIRTUAL_SEGMENT_TOWNSHIP
 10
502917.00
 20
1143230.00
  0
VERTEX
  8
VIRTUAL_SEGMENT_TOWNSHIP
 10
502893.00
 20
1143212.00
  0
VERTEX
  8
VIRTUAL_SEGMENT_TOWNSHIP
 10
502872.00
 20
1143198.00
  0
VERTEX
  8
VIRTUAL_SEGMENT_TOWNSHIP
 10
502855.00
 20
1143191.00
  0
VERTEX
  8
VIRTUAL_SEGMENT_TOWNSHIP
 10
502844.00
 20
1143182.00
  0
VERTEX
  8
VIRTUAL_SEGMENT_TOWNSHIP
 10
502833.00
 20
1143167.00
  0
VERTEX
  8
VIRTUAL_SEGMENT_TOWNSHIP
 10
502821.00
 20
1143152.00
  0
VERTEX
  8
VIRTUAL_SEGMENT_TOWNSHIP
 10
502812.00
 20
1143138.00
  0
VERTEX
  8
VIRTUAL_SEGMENT_TOWNSHIP
 10
502799.00
 20
1143121.00
  0
VERTEX
  8
VIRTUAL_SEGMENT_TOWNSHIP
 10
502789.00
 20
1143108.00
  0
VERTEX
  8
VIRTUAL_SEGMENT_TOWNSHIP
 10
502784.00
 20
1143096.00
  0
VERTEX
  8
VIRTUAL_SEGMENT_TOWNSHIP
 10
502776.00
 20
1143088.00
  0
VERTEX
  8
VIRTUAL_SEGMENT_TOWNSHIP
 10
502762.00
 20
1143084.00
  0
VERTEX
  8
VIRTUAL_SEGMENT_TOWNSHIP
 10
502750.00
 20
1143093.00
  0
VERTEX
  8
VIRTUAL_SEGMENT_TOWNSHIP
 10
502732.00
 20
1143099.00
  0
VERTEX
  8
VIRTUAL_SEGMENT_TOWNSHIP
 10
502717.00
 20
1143102.00
  0
VERTEX
  8
VIRTUAL_SEGMENT_TOWNSHIP
 10
502694.00
 20
1143107.00
  0
VERTEX
  8
VIRTUAL_SEGMENT_TOWNSHIP
 10
502669.00
 20
1143103.00
  0
VERTEX
  8
VIRTUAL_SEGMENT_TOWNSHIP
 10
502646.00
 20
1143096.00
  0
VERTEX
  8
VIRTUAL_SEGMENT_TOWNSHIP
 10
502629.00
 20
1143088.00
  0
VERTEX
  8
VIRTUAL_SEGMENT_TOWNSHIP
 10
502616.00
 20
1143085.00
  0
VERTEX
  8
VIRTUAL_SEGMENT_TOWNSHIP
 10
502608.00
 20
1143088.00
  0
VERTEX
  8
VIRTUAL_SEGMENT_TOWNSHIP
 10
502593.00
 20
1143097.00
  0
VERTEX
  8
VIRTUAL_SEGMENT_TOWNSHIP
 10
502563.00
 20
1143093.00
  0
VERTEX
  8
VIRTUAL_SEGMENT_TOWNSHIP
 10
502531.00
 20
1143087.00
  0
VERTEX
  8
VIRTUAL_SEGMENT_TOWNSHIP
 10
502503.00
 20
1143075.00
  0
VERTEX
  8
VIRTUAL_SEGMENT_TOWNSHIP
 10
502471.00
 20
1143060.00
  0
VERTEX
  8
VIRTUAL_SEGMENT_TOWNSHIP
 10
502441.00
 20
1143042.00
  0
VERTEX
  8
VIRTUAL_SEGMENT_TOWNSHIP
 10
502415.00
 20
1143025.00
  0
VERTEX
  8
VIRTUAL_SEGMENT_TOWNSHIP
 10
502393.00
 20
1143010.00
  0
VERTEX
  8
VIRTUAL_SEGMENT_TOWNSHIP
 10
502380.00
 20
1142997.00
  0
VERTEX
  8
VIRTUAL_SEGMENT_TOWNSHIP
 10
502367.00
 20
1142990.00
  0
VERTEX
  8
VIRTUAL_SEGMENT_TOWNSHIP
 10
502354.00
 20
1142986.00
  0
VERTEX
  8
VIRTUAL_SEGMENT_TOWNSHIP
 10
502338.00
 20
1142990.00
  0
VERTEX
  8
VIRTUAL_SEGMENT_TOWNSHIP
 10
502317.00
 20
1142998.00
  0
VERTEX
  8
VIRTUAL_SEGMENT_TOWNSHIP
 10
502314.00
 20
1142999.00
  0
SEQEND
  8
VIRTUAL_SEGMENT_TOWNSHIP
  0
POLYLINE
  8
BDRY_TWP_LOT-SURVEYED
 66
     1
 62
     2
  6
DASHDOT2
  0
VERTEX
  8
BDRY_TWP_LOT-SURVEYED
 10
503131.00
 20
1142249.00
  0
VERTEX
  8
BDRY_TWP_LOT-SURVEYED
 10
504260.00
 20
1142260.00
  0
SEQEND
  8
BDRY_TWP_LOT-SURVEYED
  0
POLYLINE
  8
BDRY_TWP_LOT_UNSURVEYED
 66
     1
 62
     2
  6
DIVIDE
  0
VERTEX
  8
BDRY_TWP_LOT_UNSURVEYED
 10
503117.00
 20
1143344.00
  0
VERTEX
  8
BDRY_TWP_LOT_UNSURVEYED
 10
503131.00
 20
1142249.00
  0
SEQEND
  8
BDRY_TWP_LOT_UNSURVEYED
  0
POLYLINE
  8
BDRY_TWP_LOT-SURVEYED
 66
     1
 62
     2
  6
DASHDOT2
  0
VERTEX
  8
BDRY_TWP_LOT-SURVEYED
 10
502630.00
 20
1142244.00
  0
VERTEX
  8
BDRY_TWP_LOT-SURVEYED
 10
503131.00
 20
1142249.00
  0
SEQEND
  8
BDRY_TWP_LOT-SURVEYED
  0
POLYLINE
  8
VIRTUAL_SEGMENT_LOT
 66
     1
 62
    14
  6
CONTINUOUS
  0
VERTEX
  8
VIRTUAL_SEGMENT_LOT
 10
502338.06
 20
1142241.25
  0
VERTEX
  8
VIRTUAL_SEGMENT_LOT
 10
502630.00
 20
1142244.00
  0
SEQEND
  8
VIRTUAL_SEGMENT_LOT
  0
POLYLINE
  8
BDRY_TWP_LOT_UNSURVEYED
 66
     1
 62
     2
  6
DIVIDE
  0
VERTEX
  8
BDRY_TWP_LOT_UNSURVEYED
 10
503131.00
 20
1142249.00
  0
VERTEX
  8
BDRY_TWP_LOT_UNSURVEYED
 10
503179.00
 20
1140637.00
  0
SEQEND
  8
BDRY_TWP_LOT_UNSURVEYED
  0
POLYLINE
  8
BDRY_TWP_LOT_UNSURVEYED
 66
     1
 62
     2
  6
DIVIDE
  0
VERTEX
  8
BDRY_TWP_LOT_UNSURVEYED
 10
502387.00
 20
1140635.00
  0
VERTEX
  8
BDRY_TWP_LOT_UNSURVEYED
 10
503179.00
 20
1140637.00
  0
SEQEND
  8
BDRY_TWP_LOT_UNSURVEYED
  0
POLYLINE
  8
BDRY_TWP_LOT_UNSURVEYED
 66
     1
 62
     2
  6
DIVIDE
  0
VERTEX
  8
BDRY_TWP_LOT_UNSURVEYED
 10
503179.00
 20
1140637.00
  0
VERTEX
  8
BDRY_TWP_LOT_UNSURVEYED
 10
503180.00
 20
1140316.00
  0
VERTEX
  8
BDRY_TWP_LOT_UNSURVEYED
 10
503180.00
 20
1140307.00
  0
SEQEND
  8
BDRY_TWP_LOT_UNSURVEYED
  0
POLYLINE
  8
BDRY_TWP_LOT-SURVEYED
 66
     1
 62
     2
  6
DASHDOT2
  0
VERTEX
  8
BDRY_TWP_LOT-SURVEYED
 10
509098.00
 20
1148593.00
  0
VERTEX
  8
BDRY_TWP_LOT-SURVEYED
 10
509113.00
 20
1146994.00
  0
SEQEND
  8
BDRY_TWP_LOT-SURVEYED
  0
POLYLINE
  8
VIRTUAL_SEGMENT_LOT
 66
     1
 62
    14
  6
CONTINUOUS
  0
VERTEX
  8
VIRTUAL_SEGMENT_LOT
 10
500853.00
 20
1146990.00
  0
VERTEX
  8
VIRTUAL_SEGMENT_LOT
 10
501118.00
 20
1146995.00
  0
SEQEND
  8
VIRTUAL_SEGMENT_LOT
  0
POLYLINE
  8
BDRY_TWP_LOT-SURVEYED
 66
     1
 62
     2
  6
DASHDOT2
  0
VERTEX
  8
BDRY_TWP_LOT-SURVEYED
 10
500286.00
 20
1146990.00
  0
VERTEX
  8
BDRY_TWP_LOT-SURVEYED
 10
500853.00
 20
1146990.00
  0
SEQEND
  8
BDRY_TWP_LOT-SURVEYED
  0
POLYLINE
  8
BDRY_TWP_LOT-SURVEYED
 66
     1
 62
     2
  6
DASHDOT2
  0
VERTEX
  8
BDRY_TWP_LOT-SURVEYED
 10
507477.00
 20
1150000.00
  0
VERTEX
  8
BDRY_TWP_LOT-SURVEYED
 10
507477.94
 20
1149940.63
  0
SEQEND
  8
BDRY_TWP_LOT-SURVEYED
  0
POLYLINE
  8
VIRTUAL_SEGMENT_LOT
 66
     1
 62
    14
  6
CONTINUOUS
  0
VERTEX
  8
VIRTUAL_SEGMENT_LOT
 10
507477.94
 20
1149940.63
  0
VERTEX
  8
VIRTUAL_SEGMENT_LOT
 10
507479.97
 20
1149810.25
  0
SEQEND
  8
VIRTUAL_SEGMENT_LOT
  0
POLYLINE
  8
BDRY_TWP_LOT_UNSURVEYED
 66
     1
 62
     2
  6
DIVIDE
  0
VERTEX
  8
BDRY_TWP_LOT_UNSURVEYED
 10
501927.00
 20
1150000.00
  0
VERTEX
  8
BDRY_TWP_LOT_UNSURVEYED
 10
501926.59
 20
1149418.38
  0
SEQEND
  8
BDRY_TWP_LOT_UNSURVEYED
  0
POLYLINE
  8
BDRY_TWP_LOT_UNSURVEYED
 66
     1
 62
     2
  6
DIVIDE
  0
VERTEX
  8
BDRY_TWP_LOT_UNSURVEYED
 10
505092.00
 20
1150000.00
  0
VERTEX
  8
BDRY_TWP_LOT_UNSURVEYED
 10
505096.00
 20
1149418.00
  0
SEQEND
  8
BDRY_TWP_LOT_UNSURVEYED
  0
POLYLINE
  8
VIRTUAL_SEGMENT_LOT
 66
     1
 62
    14
  6
CONTINUOUS
  0
VERTEX
  8
VIRTUAL_SEGMENT_LOT
 10
501926.59
 20
1149418.38
  0
VERTEX
  8
VIRTUAL_SEGMENT_LOT
 10
501926.56
 20
1149389.75
  0
SEQEND
  8
VIRTUAL_SEGMENT_LOT
  0
POLYLINE
  8
VIRTUAL_SEGMENT_LOT
 66
     1
 62
    14
  6
CONTINUOUS
  0
VERTEX
  8
VIRTUAL_SEGMENT_LOT
 10
501120.00
 20
1150000.00
  0
VERTEX
  8
VIRTUAL_SEGMENT_LOT
 10
501119.00
 20
1149208.00
  0
SEQEND
  8
VIRTUAL_SEGMENT_LOT
  0
POLYLINE
  8
BDRY_TWP_LOT_UNSURVEYED
 66
     1
 62
     2
  6
DIVIDE
  0
VERTEX
  8
BDRY_TWP_LOT_UNSURVEYED
 10
503514.00
 20
1150000.00
  0
VERTEX
  8
BDRY_TWP_LOT_UNSURVEYED
 10
503498.00
 20
1149130.00
  0
SEQEND
  8
BDRY_TWP_LOT_UNSURVEYED
  0
POLYLINE
  8
VIRTUAL_SEGMENT_LOT
 66
     1
 62
    14
  6
CONTINUOUS
  0
VERTEX
  8
VIRTUAL_SEGMENT_LOT
 10
505096.00
 20
1149418.00
  0
VERTEX
  8
VIRTUAL_SEGMENT_LOT
 10
505097.00
 20
1149095.00
  0
SEQEND
  8
VIRTUAL_SEGMENT_LOT
  0
POLYLINE
  8
BDRY_TWP_LOT_UNSURVEYED
 66
     1
 62
     2
  6
DIVIDE
  0
VERTEX
  8
BDRY_TWP_LOT_UNSURVEYED
 10
505097.00
 20
1149095.00
  0
VERTEX
  8
BDRY_TWP_LOT_UNSURVEYED
 10
505098.00
 20
1149012.00
  0
SEQEND
  8
BDRY_TWP_LOT_UNSURVEYED
  0
POLYLINE
  8
VIRTUAL_SEGMENT_LOT
 66
     1
 62
    14
  6
CONTINUOUS
  0
VERTEX
  8
VIRTUAL_SEGMENT_LOT
 10
503498.00
 20
1149130.00
  0
VERTEX
  8
VIRTUAL_SEGMENT_LOT
 10
503495.00
 20
1148935.00
  0
SEQEND
  8
VIRTUAL_SEGMENT_LOT
  0
POLYLINE
  8
BDRY_TWP_LOT-SURVEYED
 66
     1
 62
     2
  6
DASHDOT2
  0
VERTEX
  8
BDRY_TWP_LOT-SURVEYED
 10
507479.97
 20
1149810.25
  0
VERTEX
  8
BDRY_TWP_LOT-SURVEYED
 10
507496.00
 20
1148780.00
  0
SEQEND
  8
BDRY_TWP_LOT-SURVEYED
  0
POLYLINE
  8
BDRY_TWP_LOT-SURVEYED
 66
     1
 62
     2
  6
DASHDOT2
  0
VERTEX
  8
BDRY_TWP_LOT-SURVEYED
 10
501119.00
 20
1149208.00
  0
VERTEX
  8
BDRY_TWP_LOT-SURVEYED
 10
501119.00
 20
1148756.00
  0
SEQEND
  8
BDRY_TWP_LOT-SURVEYED
  0
POLYLINE
  8
BDRY_TWP_LOT_UNSURVEYED
 66
     1
 62
     2
  6
DIVIDE
  0
VERTEX
  8
BDRY_TWP_LOT_UNSURVEYED
 10
503495.00
 20
1148935.00
  0
VERTEX
  8
BDRY_TWP_LOT_UNSURVEYED
 10
503490.00
 20
1148708.00
  0
SEQEND
  8
BDRY_TWP_LOT_UNSURVEYED
  0
POLYLINE
  8
VIRTUAL_SEGMENT_LOT
 66
     1
 62
    14
  6
CONTINUOUS
  0
VERTEX
  8
VIRTUAL_SEGMENT_LOT
 10
505098.00
 20
1149012.00
  0
VERTEX
  8
VIRTUAL_SEGMENT_LOT
 10
505106.00
 20
1148622.00
  0
SEQEND
  8
VIRTUAL_SEGMENT_LOT
  0
POLYLINE
  8
VIRTUAL_SEGMENT_LOT
 66
     1
 62
    14
  6
CONTINUOUS
  0
VERTEX
  8
VIRTUAL_SEGMENT_LOT
 10
504877.00
 20
1148624.00
  0
VERTEX
  8
VIRTUAL_SEGMENT_LOT
 10
505106.00
 20
1148622.00
  0
SEQEND
  8
VIRTUAL_SEGMENT_LOT
  0
POLYLINE
  8
VIRTUAL_SEGMENT_LOT
 66
     1
 62
    14
  6
CONTINUOUS
  0
VERTEX
  8
VIRTUAL_SEGMENT_LOT
 10
505106.00
 20
1148622.00
  0
VERTEX
  8
VIRTUAL_SEGMENT_LOT
 10
505275.00
 20
1148621.00
  0
SEQEND
  8
VIRTUAL_SEGMENT_LOT
  0
POLYLINE
  8
BDRY_TWP_LOT-SURVEYED
 66
     1
 62
     2
  6
DASHDOT2
  0
VERTEX
  8
BDRY_TWP_LOT-SURVEYED
 10
505879.00
 20
1150000.00
  0
VERTEX
  8
BDRY_TWP_LOT-SURVEYED
 10
505894.00
 20
1148621.00
  0
SEQEND
  8
BDRY_TWP_LOT-SURVEYED
  0
POLYLINE
  8
BDRY_TWP_LOT-SURVEYED
 66
     1
 62
     2
  6
DASHDOT2
  0
VERTEX
  8
BDRY_TWP_LOT-SURVEYED
 10
505275.00
 20
1148621.00
  0
VERTEX
  8
BDRY_TWP_LOT-SURVEYED
 10
505894.00
 20
1148621.00
  0
SEQEND
  8
BDRY_TWP_LOT-SURVEYED
  0
POLYLINE
  8
BDRY_TWP_LOT-SURVEYED
 66
     1
 62
     2
  6
DASHDOT2
  0
VERTEX
  8
BDRY_TWP_LOT-SURVEYED
 10
504278.00
 20
1148619.00
  0
VERTEX
  8
BDRY_TWP_LOT-SURVEYED
 10
504877.00
 20
1148624.00
  0
SEQEND
  8
BDRY_TWP_LOT-SURVEYED
  0
POLYLINE
  8
BDRY_TWP
 66
     1
 62
     4
  6
CONTINUOUS
  0
VERTEX
  8
BDRY_TWP
 10
504265.00
 20
1150000.00
  0
VERTEX
  8
BDRY_TWP
 10
504278.00
 20
1148619.00
  0
SEQEND
  8
BDRY_TWP
  0
POLYLINE
  8
BDRY_TWP_LOT_UNSURVEYED
 66
     1
 62
     2
  6
DIVIDE
  0
VERTEX
  8
BDRY_TWP_LOT_UNSURVEYED
 10
506665.00
 20
1150000.00
  0
VERTEX
  8
BDRY_TWP_LOT_UNSURVEYED
 10
506682.00
 20
1148618.00
  0
SEQEND
  8
BDRY_TWP_LOT_UNSURVEYED
  0
POLYLINE
  8
BDRY_TWP_LOT-SURVEYED
 66
     1
 62
     2
  6
DASHDOT2
  0
VERTEX
  8
BDRY_TWP_LOT-SURVEYED
 10
505894.00
 20
1148621.00
  0
VERTEX
  8
BDRY_TWP_LOT-SURVEYED
 10
506682.00
 20
1148618.00
  0
SEQEND
  8
BDRY_TWP_LOT-SURVEYED
  0
POLYLINE
  8
VIRTUAL_SEGMENT_LOT
 66
     1
 62
    14
  6
CONTINUOUS
  0
VERTEX
  8
VIRTUAL_SEGMENT_LOT
 10
503490.00
 20
1148708.00
  0
VERTEX
  8
VIRTUAL_SEGMENT_LOT
 10
503488.00
 20
1148617.00
  0
SEQEND
  8
VIRTUAL_SEGMENT_LOT
  0
POLYLINE
  8
VIRTUAL_SEGMENT_LOT
 66
     1
 62
    14
  6
CONTINUOUS
  0
VERTEX
  8
VIRTUAL_SEGMENT_LOT
 10
503068.00
 20
1148618.00
  0
VERTEX
  8
VIRTUAL_SEGMENT_LOT
 10
503488.00
 20
1148617.00
  0
SEQEND
  8
VIRTUAL_SEGMENT_LOT
  0
POLYLINE
  8
BDRY_TWP_LOT-SURVEYED
 66
     1
 62
     2
  6
DASHDOT2
  0
VERTEX
  8
BDRY_TWP_LOT-SURVEYED
 10
503556.00
 20
1148617.00
  0
VERTEX
  8
BDRY_TWP_LOT-SURVEYED
 10
504278.00
 20
1148619.00
  0
SEQEND
  8
BDRY_TWP_LOT-SURVEYED
  0
POLYLINE
  8
VIRTUAL_SEGMENT_LOT
 66
     1
 62
    14
  6
CONTINUOUS
  0
VERTEX
  8
VIRTUAL_SEGMENT_LOT
 10
503488.00
 20
1148617.00
  0
VERTEX
  8
VIRTUAL_SEGMENT_LOT
 10
503556.00
 20
1148617.00
  0
SEQEND
  8
VIRTUAL_SEGMENT_LOT
  0
POLYLINE
  8
BDRY_TWP_LOT-SURVEYED
 66
     1
 62
     2
  6
DASHDOT2
  0
VERTEX
  8
BDRY_TWP_LOT-SURVEYED
 10
503068.00
 20
1148618.00
  0
VERTEX
  8
BDRY_TWP_LOT-SURVEYED
 10
502717.00
 20
1148615.00
  0
SEQEND
  8
BDRY_TWP_LOT-SURVEYED
  0
POLYLINE
  8
BDRY_TWP_LOT-SURVEYED
 66
     1
 62
     2
  6
DASHDOT2
  0
VERTEX
  8
BDRY_TWP_LOT-SURVEYED
 10
502717.00
 20
1150000.00
  0
VERTEX
  8
BDRY_TWP_LOT-SURVEYED
 10
502717.00
 20
1148615.00
  0
SEQEND
  8
BDRY_TWP_LOT-SURVEYED
  0
POLYLINE
  8
BDRY_TWP_LOT-SURVEYED
 66
     1
 62
     2
  6
DASHDOT2
  0
VERTEX
  8
BDRY_TWP_LOT-SURVEYED
 10
501926.00
 20
1148613.00
  0
VERTEX
  8
BDRY_TWP_LOT-SURVEYED
 10
502717.00
 20
1148615.00
  0
SEQEND
  8
BDRY_TWP_LOT-SURVEYED
  0
POLYLINE
  8
BDRY_TWP_LOT_UNSURVEYED
 66
     1
 62
     2
  6
DIVIDE
  0
VERTEX
  8
BDRY_TWP_LOT_UNSURVEYED
 10
501926.56
 20
1149389.75
  0
VERTEX
  8
BDRY_TWP_LOT_UNSURVEYED
 10
501926.00
 20
1148613.00
  0
SEQEND
  8
BDRY_TWP_LOT_UNSURVEYED
  0
POLYLINE
  8
BDRY_TWP_LOT-SURVEYED
 66
     1
 62
     2
  6
DASHDOT2
  0
VERTEX
  8
BDRY_TWP_LOT-SURVEYED
 10
501920.00
 20
1148613.00
  0
VERTEX
  8
BDRY_TWP_LOT-SURVEYED
 10
501926.00
 20
1148613.00
  0
SEQEND
  8
BDRY_TWP_LOT-SURVEYED
  0
POLYLINE
  8
BDRY_TWP_LOT-SURVEYED
 66
     1
 62
     2
  6
DASHDOT2
  0
VERTEX
  8
BDRY_TWP_LOT-SURVEYED
 10
501125.00
 20
1148612.00
  0
VERTEX
  8
BDRY_TWP_LOT-SURVEYED
 10
501920.00
 20
1148613.00
  0
SEQEND
  8
BDRY_TWP_LOT-SURVEYED
  0
POLYLINE
  8
VIRTUAL_SEGMENT_LOT
 66
     1
 62
    14
  6
CONTINUOUS
  0
VERTEX
  8
VIRTUAL_SEGMENT_LOT
 10
501119.00
 20
1148756.00
  0
VERTEX
  8
VIRTUAL_SEGMENT_LOT
 10
501125.00
 20
1148612.00
  0
SEQEND
  8
VIRTUAL_SEGMENT_LOT
  0
POLYLINE
  8
BDRY_TWP_LOT-SURVEYED
 66
     1
 62
     2
  6
DASHDOT2
  0
VERTEX
  8
BDRY_TWP_LOT-SURVEYED
 10
500933.00
 20
1148614.00
  0
VERTEX
  8
BDRY_TWP_LOT-SURVEYED
 10
501125.00
 20
1148612.00
  0
SEQEND
  8
BDRY_TWP_LOT-SURVEYED
  0
POLYLINE
  8
VIRTUAL_SEGMENT_LOT
 66
     1
 62
    14
  6
CONTINUOUS
  0
VERTEX
  8
VIRTUAL_SEGMENT_LOT
 10
500297.28
 20
1148610.63
  0
VERTEX
  8
VIRTUAL_SEGMENT_LOT
 10
500933.00
 20
1148614.00
  0
SEQEND
  8
VIRTUAL_SEGMENT_LOT
  0
POLYLINE
  8
BDRY_TWP_LOT_UNSURVEYED
 66
     1
 62
     2
  6
DIVIDE
  0
VERTEX
  8
BDRY_TWP_LOT_UNSURVEYED
 10
500317.00
 20
1150000.00
  0
VERTEX
  8
BDRY_TWP_LOT_UNSURVEYED
 10
500313.00
 20
1149849.00
  0
VERTEX
  8
BDRY_TWP_LOT_UNSURVEYED
 10
500296.00
 20
1149254.00
  0
VERTEX
  8
BDRY_TWP_LOT_UNSURVEYED
 10
500303.00
 20
1149062.00
  0
VERTEX
  8
BDRY_TWP_LOT_UNSURVEYED
 10
500297.28
 20
1148610.63
  0
SEQEND
  8
BDRY_TWP_LOT_UNSURVEYED
  0
POLYLINE
  8
VIRTUAL_SEGMENT_LOT
 66
     1
 62
    14
  6
CONTINUOUS
  0
VERTEX
  8
VIRTUAL_SEGMENT_LOT
 10
507496.00
 20
1148780.00
  0
VERTEX
  8
VIRTUAL_SEGMENT_LOT
 10
507495.69
 20
1148610.00
  0
SEQEND
  8
VIRTUAL_SEGMENT_LOT
  0
POLYLINE
  8
BDRY_TWP_LOT-SURVEYED
 66
     1
 62
     2
  6
DASHDOT2
  0
VERTEX
  8
BDRY_TWP_LOT-SURVEYED
 10
506682.00
 20
1148618.00
  0
VERTEX
  8
BDRY_TWP_LOT-SURVEYED
 10
507495.00
 20
1148610.00
  0
VERTEX
  8
BDRY_TWP_LOT-SURVEYED
 10
507495.69
 20
1148610.00
  0
SEQEND
  8
BDRY_TWP_LOT-SURVEYED
  0
POLYLINE
  8
VIRTUAL_SEGMENT_LOT
 66
     1
 62
    14
  6
CONTINUOUS
  0
VERTEX
  8
VIRTUAL_SEGMENT_LOT
 10
500000.00
 20
1148609.00
  0
VERTEX
  8
VIRTUAL_SEGMENT_LOT
 10
500297.28
 20
1148610.63
  0
SEQEND
  8
VIRTUAL_SEGMENT_LOT
  0
POLYLINE
  8
BDRY_TWP_LOT_UNSURVEYED
 66
     1
 62
     2
  6
DIVIDE
  0
VERTEX
  8
BDRY_TWP_LOT_UNSURVEYED
 10
508275.00
 20
1150000.00
  0
VERTEX
  8
BDRY_TWP_LOT_UNSURVEYED
 10
508293.00
 20
1148600.00
  0
SEQEND
  8
BDRY_TWP_LOT_UNSURVEYED
  0
POLYLINE
  8
BDRY_TWP_LOT-SURVEYED
 66
     1
 62
     2
  6
DASHDOT2
  0
VERTEX
  8
BDRY_TWP_LOT-SURVEYED
 10
507495.69
 20
1148610.00
  0
VERTEX
  8
BDRY_TWP_LOT-SURVEYED
 10
508293.00
 20
1148600.00
  0
SEQEND
  8
BDRY_TWP_LOT-SURVEYED
  0
POLYLINE
  8
BDRY_TWP_LOT-SURVEYED
 66
     1
 62
     2
  6
DASHDOT2
  0
VERTEX
  8
BDRY_TWP_LOT-SURVEYED
 10
509072.00
 20
1150000.00
  0
VERTEX
  8
BDRY_TWP_LOT-SURVEYED
 10
509098.00
 20
1148593.00
  0
SEQEND
  8
BDRY_TWP_LOT-SURVEYED
  0
POLYLINE
  8
BDRY_TWP_LOT-SURVEYED
 66
     1
 62
     2
  6
DASHDOT2
  0
VERTEX
  8
BDRY_TWP_LOT-SURVEYED
 10
508293.00
 20
1148600.00
  0
VERTEX
  8
BDRY_TWP_LOT-SURVEYED
 10
509098.00
 20
1148593.00
  0
SEQEND
  8
BDRY_TWP_LOT-SURVEYED
  0
POLYLINE
  8
BDRY_TWP_LOT-SURVEYED
 66
     1
 62
     2
  6
DASHDOT2
  0
VERTEX
  8
BDRY_TWP_LOT-SURVEYED
 10
509892.00
 20
1148585.00
  0
VERTEX
  8
BDRY_TWP_LOT-SURVEYED
 10
510000.00
 20
1148589.00
  0
SEQEND
  8
BDRY_TWP_LOT-SURVEYED
  0
POLYLINE
  8
BDRY_TWP_LOT_UNSURVEYED
 66
     1
 62
     2
  6
DIVIDE
  0
VERTEX
  8
BDRY_TWP_LOT_UNSURVEYED
 10
509877.00
 20
1150000.00
  0
VERTEX
  8
BDRY_TWP_LOT_UNSURVEYED
 10
509892.00
 20
1148585.00
  0
SEQEND
  8
BDRY_TWP_LOT_UNSURVEYED
  0
POLYLINE
  8
BDRY_TWP_LOT-SURVEYED
 66
     1
 62
     2
  6
DASHDOT2
  0
VERTEX
  8
BDRY_TWP_LOT-SURVEYED
 10
509098.00
 20
1148593.00
  0
VERTEX
  8
BDRY_TWP_LOT-SURVEYED
 10
509892.00
 20
1148585.00
  0
SEQEND
  8
BDRY_TWP_LOT-SURVEYED
  0
POLYLINE
  8
BDRY_TWP_LOT-SURVEYED
 66
     1
 62
     2
  6
DASHDOT2
  0
VERTEX
  8
BDRY_TWP_LOT-SURVEYED
 10
502717.00
 20
1148615.00
  0
VERTEX
  8
BDRY_TWP_LOT-SURVEYED
 10
502715.00
 20
1148161.00
  0
SEQEND
  8
BDRY_TWP_LOT-SURVEYED
  0
POLYLINE
  8
BDRY_TWP_LOT_UNSURVEYED
 66
     1
 62
     2
  6
DIVIDE
  0
VERTEX
  8
BDRY_TWP_LOT_UNSURVEYED
 10
501920.00
 20
1148613.00
  0
VERTEX
  8
BDRY_TWP_LOT_UNSURVEYED
 10
501910.00
 20
1147535.00
  0
SEQEND
  8
BDRY_TWP_LOT_UNSURVEYED
  0
POLYLINE
  8
VIRTUAL_SEGMENT_LOT
 66
     1
 62
    14
  6
CONTINUOUS
  0
VERTEX
  8
VIRTUAL_SEGMENT_LOT
 10
502715.00
 20
1148161.00
  0
VERTEX
  8
VIRTUAL_SEGMENT_LOT
 10
502683.00
 20
1147344.00
  0
SEQEND
  8
VIRTUAL_SEGMENT_LOT
  0
POLYLINE
  8
BDRY_TWP_LOT-SURVEYED
 66
     1
 62
     2
  6
DASHDOT2
  0
VERTEX
  8
BDRY_TWP_LOT-SURVEYED
 10
501125.00
 20
1148612.00
  0
VERTEX
  8
BDRY_TWP_LOT-SURVEYED
 10
501118.00
 20
1147276.00
  0
SEQEND
  8
BDRY_TWP_LOT-SURVEYED
  0
POLYLINE
  8
BDRY_TWP_LOT-SURVEYED
 66
     1
 62
     2
  6
DASHDOT2
  0
VERTEX
  8
BDRY_TWP_LOT-SURVEYED
 10
502683.00
 20
1147344.00
  0
VERTEX
  8
BDRY_TWP_LOT-SURVEYED
 10
502686.00
 20
1147027.00
  0
SEQEND
  8
BDRY_TWP_LOT-SURVEYED
  0
POLYLINE
  8
BDRY_TWP_LOT-SURVEYED
 66
     1
 62
     2
  6
DASHDOT2
  0
VERTEX
  8
BDRY_TWP_LOT-SURVEYED
 10
503482.84
 20
1147017.75
  0
VERTEX
  8
BDRY_TWP_LOT-SURVEYED
 10
503563.00
 20
1147016.00
  0
SEQEND
  8
BDRY_TWP_LOT-SURVEYED
  0
POLYLINE
  8
VIRTUAL_SEGMENT_LOT
 66
     1
 62
    14
  6
CONTINUOUS
  0
VERTEX
  8
VIRTUAL_SEGMENT_LOT
 10
503563.00
 20
1147016.00
  0
VERTEX
  8
VIRTUAL_SEGMENT_LOT
 10
504292.28
 20
1147014.63
  0
SEQEND
  8
VIRTUAL_SEGMENT_LOT
  0
POLYLINE
  8
VIRTUAL_SEGMENT_LOT
 66
     1
 62
    14
  6
CONTINUOUS
  0
VERTEX
  8
VIRTUAL_SEGMENT_LOT
 10
504292.28
 20
1147014.63
  0
VERTEX
  8
VIRTUAL_SEGMENT_LOT
 10
505117.00
 20
1147013.00
  0
SEQEND
  8
VIRTUAL_SEGMENT_LOT
  0
POLYLINE
  8
VIRTUAL_SEGMENT_LOT
 66
     1
 62
    14
  6
CONTINUOUS
  0
VERTEX
  8
VIRTUAL_SEGMENT_LOT
 10
501910.00
 20
1147011.00
  0
VERTEX
  8
VIRTUAL_SEGMENT_LOT
 10
502686.00
 20
1147027.00
  0
SEQEND
  8
VIRTUAL_SEGMENT_LOT
  0
POLYLINE
  8
VIRTUAL_SEGMENT_LOT
 66
     1
 62
    14
  6
CONTINUOUS
  0
VERTEX
  8
VIRTUAL_SEGMENT_LOT
 10
501910.00
 20
1147535.00
  0
VERTEX
  8
VIRTUAL_SEGMENT_LOT
 10
501910.00
 20
1147011.00
  0
SEQEND
  8
VIRTUAL_SEGMENT_LOT
  0
POLYLINE
  8
VIRTUAL_SEGMENT_LOT
 66
     1
 62
    14
  6
CONTINUOUS
  0
VERTEX
  8
VIRTUAL_SEGMENT_LOT
 10
505117.00
 20
1147013.00
  0
VERTEX
  8
VIRTUAL_SEGMENT_LOT
 10
505908.00
 20
1147011.00
  0
SEQEND
  8
VIRTUAL_SEGMENT_LOT
  0
POLYLINE
  8
BDRY_TWP_LOT-SURVEYED
 66
     1
 62
     2
  6
DASHDOT2
  0
VERTEX
  8
BDRY_TWP_LOT-SURVEYED
 10
506554.00
 20
1147010.00
  0
VERTEX
  8
BDRY_TWP_LOT-SURVEYED
 10
506700.00
 20
1147013.00
  0
SEQEND
  8
BDRY_TWP_LOT-SURVEYED
  0
POLYLINE
  8
VIRTUAL_SEGMENT_LOT
 66
     1
 62
    14
  6
CONTINUOUS
  0
VERTEX
  8
VIRTUAL_SEGMENT_LOT
 10
505908.00
 20
1147011.00
  0
VERTEX
  8
VIRTUAL_SEGMENT_LOT
 10
506554.00
 20
1147010.00
  0
SEQEND
  8
VIRTUAL_SEGMENT_LOT
  0
POLYLINE
  8
BDRY_TWP_LOT-SURVEYED
 66
     1
 62
     2
  6
DASHDOT2
  0
VERTEX
  8
BDRY_TWP_LOT-SURVEYED
 10
506700.00
 20
1147013.00
  0
VERTEX
  8
BDRY_TWP_LOT-SURVEYED
 10
507496.00
 20
1147007.00
  0
SEQEND
  8
BDRY_TWP_LOT-SURVEYED
  0
POLYLINE
  8
BDRY_TWP_LOT-SURVEYED
 66
     1
 62
     2
  6
DASHDOT2
  0
VERTEX
  8
BDRY_TWP_LOT-SURVEYED
 10
507496.00
 20
1147007.00
  0
VERTEX
  8
BDRY_TWP_LOT-SURVEYED
 10
508303.00
 20
1147002.00
  0
SEQEND
  8
BDRY_TWP_LOT-SURVEYED
  0
POLYLINE
  8
VIRTUAL_SEGMENT_LOT
 66
     1
 62
    14
  6
CONTINUOUS
  0
VERTEX
  8
VIRTUAL_SEGMENT_LOT
 10
501118.00
 20
1146995.00
  0
VERTEX
  8
VIRTUAL_SEGMENT_LOT
 10
501910.00
 20
1147011.00
  0
SEQEND
  8
VIRTUAL_SEGMENT_LOT
  0
POLYLINE
  8
VIRTUAL_SEGMENT_LOT
 66
     1
 62
    14
  6
CONTINUOUS
  0
VERTEX
  8
VIRTUAL_SEGMENT_LOT
 10
501118.00
 20
1147276.00
  0
VERTEX
  8
VIRTUAL_SEGMENT_LOT
 10
501118.00
 20
1146995.00
  0
SEQEND
  8
VIRTUAL_SEGMENT_LOT
  0
POLYLINE
  8
BDRY_TWP_LOT-SURVEYED
 66
     1
 62
     2
  6
DASHDOT2
  0
VERTEX
  8
BDRY_TWP_LOT-SURVEYED
 10
508303.00
 20
1147002.00
  0
VERTEX
  8
BDRY_TWP_LOT-SURVEYED
 10
509113.00
 20
1146994.00
  0
SEQEND
  8
BDRY_TWP_LOT-SURVEYED
  0
POLYLINE
  8
BDRY_TWP_LOT_UNSURVEYED
 66
     1
 62
     2
  6
DIVIDE
  0
VERTEX
  8
BDRY_TWP_LOT_UNSURVEYED
 10
500297.28
 20
1148610.63
  0
VERTEX
  8
BDRY_TWP_LOT_UNSURVEYED
 10
500287.00
 20
1147797.00
  0
VERTEX
  8
BDRY_TWP_LOT_UNSURVEYED
 10
500279.00
 20
1147445.00
  0
VERTEX
  8
BDRY_TWP_LOT_UNSURVEYED
 10
500286.00
 20
1146990.00
  0
SEQEND
  8
BDRY_TWP_LOT_UNSURVEYED
  0
POLYLINE
  8
BDRY_TWP_LOT-SURVEYED
 66
     1
 62
     2
  6
DASHDOT2
  0
VERTEX
  8
BDRY_TWP_LOT-SURVEYED
 10
500000.00
 20
1146989.00
  0
VERTEX
  8
BDRY_TWP_LOT-SURVEYED
 10
500286.00
 20
1146990.00
  0
SEQEND
  8
BDRY_TWP_LOT-SURVEYED
  0
POLYLINE
  8
BDRY_TWP_LOT-SURVEYED
 66
     1
 62
     2
  6
DASHDOT2
  0
VERTEX
  8
BDRY_TWP_LOT-SURVEYED
 10
509906.00
 20
1146988.00
  0
VERTEX
  8
BDRY_TWP_LOT-SURVEYED
 10
510000.00
 20
1146989.00
  0
SEQEND
  8
BDRY_TWP_LOT-SURVEYED
  0
POLYLINE
  8
BDRY_TWP_LOT_UNSURVEYED
 66
     1
 62
     2
  6
DIVIDE
  0
VERTEX
  8
BDRY_TWP_LOT_UNSURVEYED
 10
509892.00
 20
1148585.00
  0
VERTEX
  8
BDRY_TWP_LOT_UNSURVEYED
 10
509906.00
 20
1146988.00
  0
SEQEND
  8
BDRY_TWP_LOT_UNSURVEYED
  0
POLYLINE
  8
BDRY_TWP_LOT-SURVEYED
 66
     1
 62
     2
  6
DASHDOT2
  0
VERTEX
  8
BDRY_TWP_LOT-SURVEYED
 10
509113.00
 20
1146994.00
  0
VERTEX
  8
BDRY_TWP_LOT-SURVEYED
 10
509906.00
 20
1146988.00
  0
SEQEND
  8
BDRY_TWP_LOT-SURVEYED
  0
POLYLINE
  8
BDRY_TWP_LOT_UNSURVEYED
 66
     1
 62
     2
  6
DIVIDE
  0
VERTEX
  8
BDRY_TWP_LOT_UNSURVEYED
 10
506700.00
 20
1147013.00
  0
VERTEX
  8
BDRY_TWP_LOT_UNSURVEYED
 10
506702.00
 20
1146764.00
  0
SEQEND
  8
BDRY_TWP_LOT_UNSURVEYED
  0
POLYLINE
  8
VIRTUAL_SEGMENT_TOWNSHIP
 66
     1
 62
    14
  6
CONTINUOUS
  0
VERTEX
  8
VIRTUAL_SEGMENT_TOWNSHIP
 10
504295.00
 20
1146673.00
  0
VERTEX
  8
VIRTUAL_SEGMENT_TOWNSHIP
 10
504292.28
 20
1147014.63
  0
SEQEND
  8
VIRTUAL_SEGMENT_TOWNSHIP
  0
POLYLINE
  8
BDRY_TWP_LOT_UNSURVEYED
 66
     1
 62
     2
  6
DIVIDE
  0
VERTEX
  8
BDRY_TWP_LOT_UNSURVEYED
 10
508303.00
 20
1147002.00
  0
VERTEX
  8
BDRY_TWP_LOT_UNSURVEYED
 10
508306.00
 20
1146650.00
  0
SEQEND
  8
BDRY_TWP_LOT_UNSURVEYED
  0
POLYLINE
  8
BDRY_TWP
 66
     1
 62
     4
  6
CONTINUOUS
  0
VERTEX
  8
BDRY_TWP
 10
504295.00
 20
1146673.00
  0
VERTEX
  8
BDRY_TWP
 10
504299.00
 20
1146427.00
  0
SEQEND
  8
BDRY_TWP
  0
POLYLINE
  8
VIRTUAL_SEGMENT_LOT
 66
     1
 62
    14
  6
CONTINUOUS
  0
VERTEX
  8
VIRTUAL_SEGMENT_LOT
 10
503482.84
 20
1147017.75
  0
VERTEX
  8
VIRTUAL_SEGMENT_LOT
 10
503489.00
 20
1146400.00
  0
SEQEND
  8
VIRTUAL_SEGMENT_LOT
  0
POLYLINE
  8
BDRY_TWP_LOT-SURVEYED
 66
     1
 62
     2
  6
DASHDOT2
  0
VERTEX
  8
BDRY_TWP_LOT-SURVEYED
 10
502686.00
 20
1147027.00
  0
VERTEX
  8
BDRY_TWP_LOT-SURVEYED
 10
502696.00
 20
1146362.00
  0
SEQEND
  8
BDRY_TWP_LOT-SURVEYED
  0
POLYLINE
  8
VIRTUAL_SEGMENT_LOT
 66
     1
 62
    14
  6
CONTINUOUS
  0
VERTEX
  8
VIRTUAL_SEGMENT_LOT
 10
508306.00
 20
1146650.00
  0
VERTEX
  8
VIRTUAL_SEGMENT_LOT
 10
508311.00
 20
1146321.00
  0
SEQEND
  8
VIRTUAL_SEGMENT_LOT
  0
POLYLINE
  8
VIRTUAL_SEGMENT_LOT
 66
     1
 62
    14
  6
CONTINUOUS
  0
VERTEX
  8
VIRTUAL_SEGMENT_LOT
 10
506702.00
 20
1146764.00
  0
VERTEX
  8
VIRTUAL_SEGMENT_LOT
 10
506706.00
 20
1146287.00
  0
SEQEND
  8
VIRTUAL_SEGMENT_LOT
  0
POLYLINE
  8
VIRTUAL_SEGMENT_LOT
 66
     1
 62
    14
  6
CONTINUOUS
  0
VERTEX
  8
VIRTUAL_SEGMENT_LOT
 10
501910.00
 20
1147011.00
  0
VERTEX
  8
VIRTUAL_SEGMENT_LOT
 10
501911.00
 20
1146264.00
  0
SEQEND
  8
VIRTUAL_SEGMENT_LOT
  0
POLYLINE
  8
BDRY_TWP_LOT_UNSURVEYED
 66
     1
 62
     2
  6
DIVIDE
  0
VERTEX
  8
BDRY_TWP_LOT_UNSURVEYED
 10
508311.00
 20
1146321.00
  0
VERTEX
  8
BDRY_TWP_LOT_UNSURVEYED
 10
508312.00
 20
1146209.00
  0
SEQEND
  8
BDRY_TWP_LOT_UNSURVEYED
  0
POLYLINE
  8
VIRTUAL_SEGMENT_LOT
 66
     1
 62
    14
  6
CONTINUOUS
  0
VERTEX
  8
VIRTUAL_SEGMENT_LOT
 10
501118.00
 20
1146995.00
  0
VERTEX
  8
VIRTUAL_SEGMENT_LOT
 10
501117.00
 20
1146124.00
  0
SEQEND
  8
VIRTUAL_SEGMENT_LOT
  0
POLYLINE
  8
VIRTUAL_SEGMENT_LOT
 66
     1
 62
    14
  6
CONTINUOUS
  0
VERTEX
  8
VIRTUAL_SEGMENT_LOT
 10
505908.00
 20
1147011.00
  0
VERTEX
  8
VIRTUAL_SEGMENT_LOT
 10
505915.00
 20
1146097.00
  0
SEQEND
  8
VIRTUAL_SEGMENT_LOT
  0
POLYLINE
  8
VIRTUAL_SEGMENT_LOT
 66
     1
 62
    14
  6
CONTINUOUS
  0
VERTEX
  8
VIRTUAL_SEGMENT_LOT
 10
505117.00
 20
1147013.00
  0
VERTEX
  8
VIRTUAL_SEGMENT_LOT
 10
505113.00
 20
1146076.00
  0
SEQEND
  8
VIRTUAL_SEGMENT_LOT
  0
POLYLINE
  8
VIRTUAL_SEGMENT_LOT
 66
     1
 62
    14
  6
CONTINUOUS
  0
VERTEX
  8
VIRTUAL_SEGMENT_LOT
 10
508312.00
 20
1146209.00
  0
VERTEX
  8
VIRTUAL_SEGMENT_LOT
 10
508317.00
 20
1145888.00
  0
SEQEND
  8
VIRTUAL_SEGMENT_LOT
  0
POLYLINE
  8
VIRTUAL_SEGMENT_LOT
 66
     1
 62
    14
  6
CONTINUOUS
  0
VERTEX
  8
VIRTUAL_SEGMENT_LOT
 10
502692.00
 20
1145865.00
  0
VERTEX
  8
VIRTUAL_SEGMENT_LOT
 10
502691.00
 20
1145865.00
  0
VERTEX
  8
VIRTUAL_SEGMENT_LOT
 10
502686.00
 20
1145872.00
  0
VERTEX
  8
VIRTUAL_SEGMENT_LOT
 10
502689.00
 20
1145884.00
  0
VERTEX
  8
VIRTUAL_SEGMENT_LOT
 10
502690.00
 20
1145899.00
  0
VERTEX
  8
VIRTUAL_SEGMENT_LOT
 10
502685.00
 20
1145915.00
  0
VERTEX
  8
VIRTUAL_SEGMENT_LOT
 10
502671.00
 20
1145928.00
  0
VERTEX
  8
VIRTUAL_SEGMENT_LOT
 10
502642.00
 20
1145949.00
  0
VERTEX
  8
VIRTUAL_SEGMENT_LOT
 10
502615.00
 20
1145970.00
  0
VERTEX
  8
VIRTUAL_SEGMENT_LOT
 10
502596.00
 20
1145998.00
  0
VERTEX
  8
VIRTUAL_SEGMENT_LOT
 10
502587.00
 20
1146031.00
  0
VERTEX
  8
VIRTUAL_SEGMENT_LOT
 10
502580.00
 20
1146054.00
  0
VERTEX
  8
VIRTUAL_SEGMENT_LOT
 10
502567.00
 20
1146068.00
  0
VERTEX
  8
VIRTUAL_SEGMENT_LOT
 10
502546.00
 20
1146079.00
  0
VERTEX
  8
VIRTUAL_SEGMENT_LOT
 10
502524.00
 20
1146090.00
  0
VERTEX
  8
VIRTUAL_SEGMENT_LOT
 10
502522.00
 20
1146101.00
  0
VERTEX
  8
VIRTUAL_SEGMENT_LOT
 10
502528.00
 20
1146122.00
  0
VERTEX
  8
VIRTUAL_SEGMENT_LOT
 10
502525.00
 20
1146143.00
  0
VERTEX
  8
VIRTUAL_SEGMENT_LOT
 10
502533.00
 20
1146152.00
  0
VERTEX
  8
VIRTUAL_SEGMENT_LOT
 10
502538.00
 20
1146160.00
  0
VERTEX
  8
VIRTUAL_SEGMENT_LOT
 10
502536.00
 20
1146174.00
  0
VERTEX
  8
VIRTUAL_SEGMENT_LOT
 10
502531.00
 20
1146190.00
  0
VERTEX
  8
VIRTUAL_SEGMENT_LOT
 10
502538.00
 20
1146205.00
  0
VERTEX
  8
VIRTUAL_SEGMENT_LOT
 10
502535.00
 20
1146229.00
  0
VERTEX
  8
VIRTUAL_SEGMENT_LOT
 10
502531.00
 20
1146262.00
  0
VERTEX
  8
VIRTUAL_SEGMENT_LOT
 10
502530.00
 20
1146270.00
  0
VERTEX
  8
VIRTUAL_SEGMENT_LOT
 10
502538.00
 20
1146280.00
  0
VERTEX
  8
VIRTUAL_SEGMENT_LOT
 10
502557.00
 20
1146286.00
  0
VERTEX
  8
VIRTUAL_SEGMENT_LOT
 10
502570.00
 20
1146283.00
  0
VERTEX
  8
VIRTUAL_SEGMENT_LOT
 10
502587.00
 20
1146280.00
  0
VERTEX
  8
VIRTUAL_SEGMENT_LOT
 10
502603.00
 20
1146281.00
  0
VERTEX
  8
VIRTUAL_SEGMENT_LOT
 10
502611.00
 20
1146290.00
  0
VERTEX
  8
VIRTUAL_SEGMENT_LOT
 10
502614.00
 20
1146302.00
  0
VERTEX
  8
VIRTUAL_SEGMENT_LOT
 10
502619.00
 20
1146315.00
  0
VERTEX
  8
VIRTUAL_SEGMENT_LOT
 10
502640.00
 20
1146330.00
  0
VERTEX
  8
VIRTUAL_SEGMENT_LOT
 10
502665.00
 20
1146348.00
  0
VERTEX
  8
VIRTUAL_SEGMENT_LOT
 10
502693.00
 20
1146363.00
  0
VERTEX
  8
VIRTUAL_SEGMENT_LOT
 10
502696.00
 20
1146362.00
  0
SEQEND
  8
VIRTUAL_SEGMENT_LOT
  0
POLYLINE
  8
VIRTUAL_SEGMENT_TOWNSHIP
 66
     1
 62
    14
  6
CONTINUOUS
  0
VERTEX
  8
VIRTUAL_SEGMENT_TOWNSHIP
 10
504299.00
 20
1146427.00
  0
VERTEX
  8
VIRTUAL_SEGMENT_TOWNSHIP
 10
504304.00
 20
1145676.00
  0
SEQEND
  8
VIRTUAL_SEGMENT_TOWNSHIP
  0
POLYLINE
  8
BDRY_TWP
 66
     1
 62
     4
  6
CONTINUOUS
  0
VERTEX
  8
BDRY_TWP
 10
504304.00
 20
1145676.00
  0
VERTEX
  8
BDRY_TWP
 10
504306.50
 20
1145481.00
  0
SEQEND
  8
BDRY_TWP
  0
POLYLINE
  8
VIRTUAL_SEGMENT_LOT
 66
     1
 62
    14
  6
CONTINUOUS
  0
VERTEX
  8
VIRTUAL_SEGMENT_LOT
 10
504306.50
 20
1145481.00
  0
VERTEX
  8
VIRTUAL_SEGMENT_LOT
 10
504307.00
 20
1145441.00
  0
SEQEND
  8
VIRTUAL_SEGMENT_LOT
  0
POLYLINE
  8
VIRTUAL_SEGMENT_LOT
 66
     1
 62
    14
  6
CONTINUOUS
  0
VERTEX
  8
VIRTUAL_SEGMENT_LOT
 10
504307.00
 20
1145441.00
  0
VERTEX
  8
VIRTUAL_SEGMENT_LOT
 10
504312.66
 20
1145441.00
  0
SEQEND
  8
VIRTUAL_SEGMENT_LOT
  0
POLYLINE
  8
BDRY_TWP_LOT_UNSURVEYED
 66
     1
 62
     2
  6
DIVIDE
  0
VERTEX
  8
BDRY_TWP_LOT_UNSURVEYED
 10
505113.00
 20
1146076.00
  0
VERTEX
  8
BDRY_TWP_LOT_UNSURVEYED
 10
505116.00
 20
1145440.00
  0
SEQEND
  8
BDRY_TWP_LOT_UNSURVEYED
  0
POLYLINE
  8
BDRY_TWP_LOT-SURVEYED
 66
     1
 62
     2
  6
DASHDOT2
  0
VERTEX
  8
BDRY_TWP_LOT-SURVEYED
 10
504312.66
 20
1145441.00
  0
VERTEX
  8
BDRY_TWP_LOT-SURVEYED
 10
505116.00
 20
1145440.00
  0
SEQEND
  8
BDRY_TWP_LOT-SURVEYED
  0
POLYLINE
  8
BDRY_TWP_LOT-SURVEYED
 66
     1
 62
     2
  6
DASHDOT2
  0
VERTEX
  8
BDRY_TWP_LOT-SURVEYED
 10
505915.00
 20
1146097.00
  0
VERTEX
  8
BDRY_TWP_LOT-SURVEYED
 10
505921.00
 20
1145435.00
  0
SEQEND
  8
BDRY_TWP_LOT-SURVEYED
  0
POLYLINE
  8
BDRY_TWP_LOT-SURVEYED
 66
     1
 62
     2
  6
DASHDOT2
  0
VERTEX
  8
BDRY_TWP_LOT-SURVEYED
 10
505116.00
 20
1145440.00
  0
VERTEX
  8
BDRY_TWP_LOT-SURVEYED
 10
505921.00
 20
1145435.00
  0
SEQEND
  8
BDRY_TWP_LOT-SURVEYED
  0
POLYLINE
  8
VIRTUAL_SEGMENT_LOT
 66
     1
 62
    14
  6
CONTINUOUS
  0
VERTEX
  8
VIRTUAL_SEGMENT_LOT
 10
503797.00
 20
1145430.00
  0
VERTEX
  8
VIRTUAL_SEGMENT_LOT
 10
504307.00
 20
1145441.00
  0
SEQEND
  8
VIRTUAL_SEGMENT_LOT
  0
POLYLINE
  8
BDRY_TWP_LOT_UNSURVEYED
 66
     1
 62
     2
  6
DIVIDE
  0
VERTEX
  8
BDRY_TWP_LOT_UNSURVEYED
 10
506706.00
 20
1146287.00
  0
VERTEX
  8
BDRY_TWP_LOT_UNSURVEYED
 10
506712.00
 20
1145430.00
  0
SEQEND
  8
BDRY_TWP_LOT_UNSURVEYED
  0
POLYLINE
  8
BDRY_TWP_LOT-SURVEYED
 66
     1
 62
     2
  6
DASHDOT2
  0
VERTEX
  8
BDRY_TWP_LOT-SURVEYED
 10
505921.00
 20
1145435.00
  0
VERTEX
  8
BDRY_TWP_LOT-SURVEYED
 10
506712.00
 20
1145430.00
  0
SEQEND
  8
BDRY_TWP_LOT-SURVEYED
  0
POLYLINE
  8
VIRTUAL_SEGMENT_LOT
 66
     1
 62
    14
  6
CONTINUOUS
  0
VERTEX
  8
VIRTUAL_SEGMENT_LOT
 10
507496.00
 20
1147007.00
  0
VERTEX
  8
VIRTUAL_SEGMENT_LOT
 10
507491.59
 20
1145428.00
  0
SEQEND
  8
VIRTUAL_SEGMENT_LOT
  0
POLYLINE
  8
BDRY_TWP_LOT-SURVEYED
 66
     1
 62
     2
  6
DASHDOT2
  0
VERTEX
  8
BDRY_TWP_LOT-SURVEYED
 10
506712.00
 20
1145430.00
  0
VERTEX
  8
BDRY_TWP_LOT-SURVEYED
 10
507490.00
 20
1145428.00
  0
VERTEX
  8
BDRY_TWP_LOT-SURVEYED
 10
507491.59
 20
1145428.00
  0
SEQEND
  8
BDRY_TWP_LOT-SURVEYED
  0
POLYLINE
  8
BDRY_TWP_LOT-SURVEYED
 66
     1
 62
     2
  6
DASHDOT2
  0
VERTEX
  8
BDRY_TWP_LOT-SURVEYED
 10
503504.00
 20
1145425.00
  0
VERTEX
  8
BDRY_TWP_LOT-SURVEYED
 10
503797.00
 20
1145430.00
  0
SEQEND
  8
BDRY_TWP_LOT-SURVEYED
  0
POLYLINE
  8
BDRY_TWP_LOT_UNSURVEYED
 66
     1
 62
     2
  6
DIVIDE
  0
VERTEX
  8
BDRY_TWP_LOT_UNSURVEYED
 10
503489.00
 20
1146400.00
  0
VERTEX
  8
BDRY_TWP_LOT_UNSURVEYED
 10
503504.00
 20
1145425.00
  0
SEQEND
  8
BDRY_TWP_LOT_UNSURVEYED
  0
POLYLINE
  8
BDRY_TWP_LOT_UNSURVEYED
 66
     1
 62
     2
  6
DIVIDE
  0
VERTEX
  8
BDRY_TWP_LOT_UNSURVEYED
 10
508317.00
 20
1145888.00
  0
VERTEX
  8
BDRY_TWP_LOT_UNSURVEYED
 10
508324.00
 20
1145420.00
  0
SEQEND
  8
BDRY_TWP_LOT_UNSURVEYED
  0
POLYLINE
  8
BDRY_TWP_LOT-SURVEYED
 66
     1
 62
     2
  6
DASHDOT2
  0
VERTEX
  8
BDRY_TWP_LOT-SURVEYED
 10
507491.59
 20
1145428.00
  0
VERTEX
  8
BDRY_TWP_LOT-SURVEYED
 10
508324.00
 20
1145420.00
  0
SEQEND
  8
BDRY_TWP_LOT-SURVEYED
  0
POLYLINE
  8
BDRY_TWP_LOT-SURVEYED
 66
     1
 62
     2
  6
DASHDOT2
  0
VERTEX
  8
BDRY_TWP_LOT-SURVEYED
 10
508324.00
 20
1145420.00
  0
VERTEX
  8
BDRY_TWP_LOT-SURVEYED
 10
508348.31
 20
1145419.75
  0
SEQEND
  8
BDRY_TWP_LOT-SURVEYED
  0
POLYLINE
  8
VIRTUAL_SEGMENT_LOT
 66
     1
 62
    14
  6
CONTINUOUS
  0
VERTEX
  8
VIRTUAL_SEGMENT_LOT
 10
508348.31
 20
1145419.75
  0
VERTEX
  8
VIRTUAL_SEGMENT_LOT
 10
508367.66
 20
1145419.50
  0
SEQEND
  8
VIRTUAL_SEGMENT_LOT
  0
POLYLINE
  8
BDRY_TWP_LOT-SURVEYED
 66
     1
 62
     2
  6
DASHDOT2
  0
VERTEX
  8
BDRY_TWP_LOT-SURVEYED
 10
509113.00
 20
1146994.00
  0
VERTEX
  8
BDRY_TWP_LOT-SURVEYED
 10
509121.00
 20
1145411.00
  0
SEQEND
  8
BDRY_TWP_LOT-SURVEYED
  0
POLYLINE
  8
BDRY_TWP_LOT-SURVEYED
 66
     1
 62
     2
  6
DASHDOT2
  0
VERTEX
  8
BDRY_TWP_LOT-SURVEYED
 10
508367.66
 20
1145419.50
  0
VERTEX
  8
BDRY_TWP_LOT-SURVEYED
 10
509121.00
 20
1145411.00
  0
SEQEND
  8
BDRY_TWP_LOT-SURVEYED
  0
POLYLINE
  8
BDRY_TWP_LOT-SURVEYED
 66
     1
 62
     2
  6
DASHDOT2
  0
VERTEX
  8
BDRY_TWP_LOT-SURVEYED
 10
502692.00
 20
1145865.00
  0
VERTEX
  8
BDRY_TWP_LOT-SURVEYED
 10
502694.00
 20
1145410.00
  0
SEQEND
  8
BDRY_TWP_LOT-SURVEYED
  0
POLYLINE
  8
BDRY_TWP_LOT_UNSURVEYED
 66
     1
 62
     2
  6
DIVIDE
  0
VERTEX
  8
BDRY_TWP_LOT_UNSURVEYED
 10
509906.00
 20
1146988.00
  0
VERTEX
  8
BDRY_TWP_LOT_UNSURVEYED
 10
509916.00
 20
1145402.00
  0
SEQEND
  8
BDRY_TWP_LOT_UNSURVEYED
  0
POLYLINE
  8
BDRY_TWP_LOT-SURVEYED
 66
     1
 62
     2
  6
DASHDOT2
  0
VERTEX
  8
BDRY_TWP_LOT-SURVEYED
 10
509121.00
 20
1145411.00
  0
VERTEX
  8
BDRY_TWP_LOT-SURVEYED
 10
509916.00
 20
1145402.00
  0
SEQEND
  8
BDRY_TWP_LOT-SURVEYED
  0
POLYLINE
  8
BDRY_TWP_LOT-SURVEYED
 66
     1
 62
     2
  6
DASHDOT2
  0
VERTEX
  8
BDRY_TWP_LOT-SURVEYED
 10
509916.00
 20
1145402.00
  0
VERTEX
  8
BDRY_TWP_LOT-SURVEYED
 10
510000.00
 20
1145402.00
  0
SEQEND
  8
BDRY_TWP_LOT-SURVEYED
  0
POLYLINE
  8
BDRY_TWP_LOT-SURVEYED
 66
     1
 62
     2
  6
DASHDOT2
  0
VERTEX
  8
BDRY_TWP_LOT-SURVEYED
 10
501913.00
 20
1145397.00
  0
VERTEX
  8
BDRY_TWP_LOT-SURVEYED
 10
502694.00
 20
1145410.00
  0
SEQEND
  8
BDRY_TWP_LOT-SURVEYED
  0
POLYLINE
  8
BDRY_TWP_LOT_UNSURVEYED
 66
     1
 62
     2
  6
DIVIDE
  0
VERTEX
  8
BDRY_TWP_LOT_UNSURVEYED
 10
501911.00
 20
1146264.00
  0
VERTEX
  8
BDRY_TWP_LOT_UNSURVEYED
 10
501913.00
 20
1145397.00
  0
SEQEND
  8
BDRY_TWP_LOT_UNSURVEYED
  0
POLYLINE
  8
BDRY_TWP_LOT-SURVEYED
 66
     1
 62
     2
  6
DASHDOT2
  0
VERTEX
  8
BDRY_TWP_LOT-SURVEYED
 10
501421.00
 20
1145389.00
  0
VERTEX
  8
BDRY_TWP_LOT-SURVEYED
 10
501913.00
 20
1145397.00
  0
SEQEND
  8
BDRY_TWP_LOT-SURVEYED
  0
POLYLINE
  8
VIRTUAL_SEGMENT_LOT
 66
     1
 62
    14
  6
CONTINUOUS
  0
VERTEX
  8
VIRTUAL_SEGMENT_LOT
 10
504307.00
 20
1145441.00
  0
VERTEX
  8
VIRTUAL_SEGMENT_LOT
 10
504306.88
 20
1145386.25
  0
SEQEND
  8
VIRTUAL_SEGMENT_LOT
  0
POLYLINE
  8
BDRY_TWP_LOT-SURVEYED
 66
     1
 62
     2
  6
DASHDOT2
  0
VERTEX
  8
BDRY_TWP_LOT-SURVEYED
 10
501117.00
 20
1146124.00
  0
VERTEX
  8
BDRY_TWP_LOT-SURVEYED
 10
501123.00
 20
1145383.00
  0
SEQEND
  8
BDRY_TWP_LOT-SURVEYED
  0
POLYLINE
  8
VIRTUAL_SEGMENT_LOT
 66
     1
 62
    14
  6
CONTINUOUS
  0
VERTEX
  8
VIRTUAL_SEGMENT_LOT
 10
501060.00
 20
1145382.00
  0
VERTEX
  8
VIRTUAL_SEGMENT_LOT
 10
501071.00
 20
1145392.00
  0
VERTEX
  8
VIRTUAL_SEGMENT_LOT
 10
501086.00
 20
1145395.00
  0
VERTEX
  8
VIRTUAL_SEGMENT_LOT
 10
501102.00
 20
1145395.00
  0
VERTEX
  8
VIRTUAL_SEGMENT_LOT
 10
501108.00
 20
1145392.00
  0
VERTEX
  8
VIRTUAL_SEGMENT_LOT
 10
501113.41
 20
1145383.00
  0
SEQEND
  8
VIRTUAL_SEGMENT_LOT
  0
POLYLINE
  8
VIRTUAL_SEGMENT_LOT
 66
     1
 62
    14
  6
CONTINUOUS
  0
VERTEX
  8
VIRTUAL_SEGMENT_LOT
 10
501129.81
 20
1145382.00
  0
VERTEX
  8
VIRTUAL_SEGMENT_LOT
 10
501130.00
 20
1145384.00
  0
VERTEX
  8
VIRTUAL_SEGMENT_LOT
 10
501141.00
 20
1145388.00
  0
VERTEX
  8
VIRTUAL_SEGMENT_LOT
 10
501148.00
 20
1145390.00
  0
VERTEX
  8
VIRTUAL_SEGMENT_LOT
 10
501150.00
 20
1145400.00
  0
VERTEX
  8
VIRTUAL_SEGMENT_LOT
 10
501165.00
 20
1145404.00
  0
VERTEX
  8
VIRTUAL_SEGMENT_LOT
 10
501177.00
 20
1145407.00
  0
VERTEX
  8
VIRTUAL_SEGMENT_LOT
 10
501186.00
 20
1145427.00
  0
VERTEX
  8
VIRTUAL_SEGMENT_LOT
 10
501196.00
 20
1145441.00
  0
VERTEX
  8
VIRTUAL_SEGMENT_LOT
 10
501209.00
 20
1145446.00
  0
VERTEX
  8
VIRTUAL_SEGMENT_LOT
 10
501222.00
 20
1145441.00
  0
VERTEX
  8
VIRTUAL_SEGMENT_LOT
 10
501255.00
 20
1145461.00
  0
VERTEX
  8
VIRTUAL_SEGMENT_LOT
 10
501275.00
 20
1145470.00
  0
VERTEX
  8
VIRTUAL_SEGMENT_LOT
 10
501286.00
 20
1145478.00
  0
VERTEX
  8
VIRTUAL_SEGMENT_LOT
 10
501298.00
 20
1145475.00
  0
VERTEX
  8
VIRTUAL_SEGMENT_LOT
 10
501305.00
 20
1145462.00
  0
VERTEX
  8
VIRTUAL_SEGMENT_LOT
 10
501317.00
 20
1145461.00
  0
VERTEX
  8
VIRTUAL_SEGMENT_LOT
 10
501322.00
 20
1145449.00
  0
VERTEX
  8
VIRTUAL_SEGMENT_LOT
 10
501331.00
 20
1145452.00
  0
VERTEX
  8
VIRTUAL_SEGMENT_LOT
 10
501350.00
 20
1145460.00
  0
VERTEX
  8
VIRTUAL_SEGMENT_LOT
 10
501358.00
 20
1145444.00
  0
VERTEX
  8
VIRTUAL_SEGMENT_LOT
 10
501373.00
 20
1145446.00
  0
VERTEX
  8
VIRTUAL_SEGMENT_LOT
 10
501386.00
 20
1145448.00
  0
VERTEX
  8
VIRTUAL_SEGMENT_LOT
 10
501402.00
 20
1145425.00
  0
VERTEX
  8
VIRTUAL_SEGMENT_LOT
 10
501413.00
 20
1145412.00
  0
VERTEX
  8
VIRTUAL_SEGMENT_LOT
 10
501421.00
 20
1145398.00
  0
VERTEX
  8
VIRTUAL_SEGMENT_LOT
 10
501421.00
 20
1145389.00
  0
SEQEND
  8
VIRTUAL_SEGMENT_LOT
  0
POLYLINE
  8
BDRY_TWP_LOT-SURVEYED
 66
     1
 62
     2
  6
DASHDOT2
  0
VERTEX
  8
BDRY_TWP_LOT-SURVEYED
 10
501123.00
 20
1145383.00
  0
VERTEX
  8
BDRY_TWP_LOT-SURVEYED
 10
501129.81
 20
1145382.00
  0
SEQEND
  8
BDRY_TWP_LOT-SURVEYED
  0
POLYLINE
  8
BDRY_TWP_LOT_UNSURVEYED
 66
     1
 62
     2
  6
DIVIDE
  0
VERTEX
  8
BDRY_TWP_LOT_UNSURVEYED
 10
500286.00
 20
1146990.00
  0
VERTEX
  8
BDRY_TWP_LOT_UNSURVEYED
 10
500289.00
 20
1145374.00
  0
VERTEX
  8
BDRY_TWP_LOT_UNSURVEYED
 10
500289.00
 20
1145372.50
  0
SEQEND
  8
BDRY_TWP_LOT_UNSURVEYED
  0
POLYLINE
  8
VIRTUAL_SEGMENT_LOT
 66
     1
 62
    14
  6
CONTINUOUS
  0
VERTEX
  8
VIRTUAL_SEGMENT_LOT
 10
500000.00
 20
1145370.00
  0
VERTEX
  8
VIRTUAL_SEGMENT_LOT
 10
500289.00
 20
1145372.50
  0
SEQEND
  8
VIRTUAL_SEGMENT_LOT
  0
POLYLINE
  8
VIRTUAL_SEGMENT_LOT
 66
     1
 62
    14
  6
CONTINUOUS
  0
VERTEX
  8
VIRTUAL_SEGMENT_LOT
 10
501113.41
 20
1145383.00
  0
VERTEX
  8
VIRTUAL_SEGMENT_LOT
 10
501117.00
 20
1145377.00
  0
VERTEX
  8
VIRTUAL_SEGMENT_LOT
 10
501114.00
 20
1145370.00
  0
VERTEX
  8
VIRTUAL_SEGMENT_LOT
 10
501107.00
 20
1145361.00
  0
VERTEX
  8
VIRTUAL_SEGMENT_LOT
 10
501105.00
 20
1145349.00
  0
VERTEX
  8
VIRTUAL_SEGMENT_LOT
 10
501118.00
 20
1145334.00
  0
VERTEX
  8
VIRTUAL_SEGMENT_LOT
 10
501126.00
 20
1145328.00
  0
VERTEX
  8
VIRTUAL_SEGMENT_LOT
 10
501133.00
 20
1145337.00
  0
VERTEX
  8
VIRTUAL_SEGMENT_LOT
 10
501130.00
 20
1145356.00
  0
VERTEX
  8
VIRTUAL_SEGMENT_LOT
 10
501129.00
 20
1145374.00
  0
VERTEX
  8
VIRTUAL_SEGMENT_LOT
 10
501129.81
 20
1145382.00
  0
SEQEND
  8
VIRTUAL_SEGMENT_LOT
  0
POLYLINE
  8
VIRTUAL_SEGMENT_LOT
 66
     1
 62
    14
  6
CONTINUOUS
  0
VERTEX
  8
VIRTUAL_SEGMENT_LOT
 10
507491.59
 20
1145428.00
  0
VERTEX
  8
VIRTUAL_SEGMENT_LOT
 10
507491.00
 20
1145220.00
  0
SEQEND
  8
VIRTUAL_SEGMENT_LOT
  0
POLYLINE
  8
BDRY_TWP_LOT_UNSURVEYED
 66
     1
 62
     2
  6
DIVIDE
  0
VERTEX
  8
BDRY_TWP_LOT_UNSURVEYED
 10
506712.00
 20
1145430.00
  0
VERTEX
  8
BDRY_TWP_LOT_UNSURVEYED
 10
506714.53
 20
1145058.75
  0
SEQEND
  8
BDRY_TWP_LOT_UNSURVEYED
  0
POLYLINE
  8
BDRY_TWP
 66
     1
 62
     4
  6
CONTINUOUS
  0
VERTEX
  8
BDRY_TWP
 10
504306.88
 20
1145386.25
  0
VERTEX
  8
BDRY_TWP
 10
504306.00
 20
1145018.00
  0
SEQEND
  8
BDRY_TWP
  0
POLYLINE
  8
VIRTUAL_SEGMENT_LOT
 66
     1
 62
    14
  6
CONTINUOUS
  0
VERTEX
  8
VIRTUAL_SEGMENT_LOT
 10
506714.53
 20
1145058.75
  0
VERTEX
  8
VIRTUAL_SEGMENT_LOT
 10
506714.94
 20
1144995.88
  0
SEQEND
  8
VIRTUAL_SEGMENT_LOT
  0
POLYLINE
  8
BDRY_TWP_LOT_UNSURVEYED
 66
     1
 62
     2
  6
DIVIDE
  0
VERTEX
  8
BDRY_TWP_LOT_UNSURVEYED
 10
500289.00
 20
1145372.50
  0
VERTEX
  8
BDRY_TWP_LOT_UNSURVEYED
 10
500288.00
 20
1144960.00
  0
VERTEX
  8
BDRY_TWP_LOT_UNSURVEYED
 10
500289.00
 20
1144952.00
  0
SEQEND
  8
BDRY_TWP_LOT_UNSURVEYED
  0
POLYLINE
  8
VIRTUAL_SEGMENT_LOT
 66
     1
 62
    14
  6
CONTINUOUS
  0
VERTEX
  8
VIRTUAL_SEGMENT_LOT
 10
500289.00
 20
1144952.00
  0
VERTEX
  8
VIRTUAL_SEGMENT_LOT
 10
500291.00
 20
1144951.00
  0
VERTEX
  8
VIRTUAL_SEGMENT_LOT
 10
500307.00
 20
1144950.00
  0
VERTEX
  8
VIRTUAL_SEGMENT_LOT
 10
500330.00
 20
1144952.00
  0
VERTEX
  8
VIRTUAL_SEGMENT_LOT
 10
500356.00
 20
1144966.00
  0
VERTEX
  8
VIRTUAL_SEGMENT_LOT
 10
500359.00
 20
1144977.00
  0
VERTEX
  8
VIRTUAL_SEGMENT_LOT
 10
500350.00
 20
1144985.00
  0
VERTEX
  8
VIRTUAL_SEGMENT_LOT
 10
500339.00
 20
1144991.00
  0
VERTEX
  8
VIRTUAL_SEGMENT_LOT
 10
500331.00
 20
1144996.00
  0
VERTEX
  8
VIRTUAL_SEGMENT_LOT
 10
500330.00
 20
1145004.00
  0
VERTEX
  8
VIRTUAL_SEGMENT_LOT
 10
500334.00
 20
1145014.00
  0
VERTEX
  8
VIRTUAL_SEGMENT_LOT
 10
500351.00
 20
1145023.00
  0
VERTEX
  8
VIRTUAL_SEGMENT_LOT
 10
500373.00
 20
1145041.00
  0
VERTEX
  8
VIRTUAL_SEGMENT_LOT
 10
500384.00
 20
1145053.00
  0
VERTEX
  8
VIRTUAL_SEGMENT_LOT
 10
500385.00
 20
1145070.00
  0
VERTEX
  8
VIRTUAL_SEGMENT_LOT
 10
500387.00
 20
1145081.00
  0
VERTEX
  8
VIRTUAL_SEGMENT_LOT
 10
500397.00
 20
1145082.00
  0
VERTEX
  8
VIRTUAL_SEGMENT_LOT
 10
500413.00
 20
1145083.00
  0
VERTEX
  8
VIRTUAL_SEGMENT_LOT
 10
500427.00
 20
1145092.00
  0
VERTEX
  8
VIRTUAL_SEGMENT_LOT
 10
500435.00
 20
1145104.00
  0
VERTEX
  8
VIRTUAL_SEGMENT_LOT
 10
500455.00
 20
1145121.00
  0
VERTEX
  8
VIRTUAL_SEGMENT_LOT
 10
500474.00
 20
1145137.00
  0
VERTEX
  8
VIRTUAL_SEGMENT_LOT
 10
500496.00
 20
1145154.00
  0
VERTEX
  8
VIRTUAL_SEGMENT_LOT
 10
500506.00
 20
1145148.00
  0
VERTEX
  8
VIRTUAL_SEGMENT_LOT
 10
500505.00
 20
1145136.00
  0
VERTEX
  8
VIRTUAL_SEGMENT_LOT
 10
500512.00
 20
1145127.00
  0
VERTEX
  8
VIRTUAL_SEGMENT_LOT
 10
500522.00
 20
1145119.00
  0
VERTEX
  8
VIRTUAL_SEGMENT_LOT
 10
500540.00
 20
1145123.00
  0
VERTEX
  8
VIRTUAL_SEGMENT_LOT
 10
500555.00
 20
1145126.00
  0
VERTEX
  8
VIRTUAL_SEGMENT_LOT
 10
500562.00
 20
1145114.00
  0
VERTEX
  8
VIRTUAL_SEGMENT_LOT
 10
500569.00
 20
1145105.00
  0
VERTEX
  8
VIRTUAL_SEGMENT_LOT
 10
500585.00
 20
1145103.00
  0
VERTEX
  8
VIRTUAL_SEGMENT_LOT
 10
500593.00
 20
1145114.00
  0
VERTEX
  8
VIRTUAL_SEGMENT_LOT
 10
500601.00
 20
1145117.00
  0
VERTEX
  8
VIRTUAL_SEGMENT_LOT
 10
500606.00
 20
1145115.00
  0
VERTEX
  8
VIRTUAL_SEGMENT_LOT
 10
500618.00
 20
1145102.00
  0
VERTEX
  8
VIRTUAL_SEGMENT_LOT
 10
500629.00
 20
1145103.00
  0
VERTEX
  8
VIRTUAL_SEGMENT_LOT
 10
500653.00
 20
1145116.00
  0
VERTEX
  8
VIRTUAL_SEGMENT_LOT
 10
500663.00
 20
1145127.00
  0
VERTEX
  8
VIRTUAL_SEGMENT_LOT
 10
500662.00
 20
1145139.00
  0
VERTEX
  8
VIRTUAL_SEGMENT_LOT
 10
500659.00
 20
1145147.00
  0
VERTEX
  8
VIRTUAL_SEGMENT_LOT
 10
500665.00
 20
1145159.00
  0
VERTEX
  8
VIRTUAL_SEGMENT_LOT
 10
500659.00
 20
1145173.00
  0
VERTEX
  8
VIRTUAL_SEGMENT_LOT
 10
500665.00
 20
1145179.00
  0
VERTEX
  8
VIRTUAL_SEGMENT_LOT
 10
500698.00
 20
1145186.00
  0
VERTEX
  8
VIRTUAL_SEGMENT_LOT
 10
500731.00
 20
1145175.00
  0
VERTEX
  8
VIRTUAL_SEGMENT_LOT
 10
500756.00
 20
1145185.00
  0
VERTEX
  8
VIRTUAL_SEGMENT_LOT
 10
500800.00
 20
1145206.00
  0
VERTEX
  8
VIRTUAL_SEGMENT_LOT
 10
500818.00
 20
1145220.00
  0
VERTEX
  8
VIRTUAL_SEGMENT_LOT
 10
500833.00
 20
1145238.00
  0
VERTEX
  8
VIRTUAL_SEGMENT_LOT
 10
500843.00
 20
1145252.00
  0
VERTEX
  8
VIRTUAL_SEGMENT_LOT
 10
500859.00
 20
1145264.00
  0
VERTEX
  8
VIRTUAL_SEGMENT_LOT
 10
500863.00
 20
1145250.00
  0
VERTEX
  8
VIRTUAL_SEGMENT_LOT
 10
500865.00
 20
1145237.00
  0
VERTEX
  8
VIRTUAL_SEGMENT_LOT
 10
500869.00
 20
1145232.00
  0
VERTEX
  8
VIRTUAL_SEGMENT_LOT
 10
500882.00
 20
1145232.00
  0
VERTEX
  8
VIRTUAL_SEGMENT_LOT
 10
500900.00
 20
1145243.00
  0
VERTEX
  8
VIRTUAL_SEGMENT_LOT
 10
500911.00
 20
1145254.00
  0
VERTEX
  8
VIRTUAL_SEGMENT_LOT
 10
500937.00
 20
1145267.00
  0
VERTEX
  8
VIRTUAL_SEGMENT_LOT
 10
500954.00
 20
1145269.00
  0
VERTEX
  8
VIRTUAL_SEGMENT_LOT
 10
500977.00
 20
1145271.00
  0
VERTEX
  8
VIRTUAL_SEGMENT_LOT
 10
501001.00
 20
1145281.00
  0
VERTEX
  8
VIRTUAL_SEGMENT_LOT
 10
501021.00
 20
1145296.00
  0
VERTEX
  8
VIRTUAL_SEGMENT_LOT
 10
501040.00
 20
1145317.00
  0
VERTEX
  8
VIRTUAL_SEGMENT_LOT
 10
501057.00
 20
1145337.00
  0
VERTEX
  8
VIRTUAL_SEGMENT_LOT
 10
501061.00
 20
1145351.00
  0
VERTEX
  8
VIRTUAL_SEGMENT_LOT
 10
501057.00
 20
1145368.00
  0
VERTEX
  8
VIRTUAL_SEGMENT_LOT
 10
501058.00
 20
1145379.00
  0
VERTEX
  8
VIRTUAL_SEGMENT_LOT
 10
501060.00
 20
1145382.00
  0
SEQEND
  8
VIRTUAL_SEGMENT_LOT
  0
POLYLINE
  8
VIRTUAL_SEGMENT_TOWNSHIP
 66
     1
 62
    14
  6
CONTINUOUS
  0
VERTEX
  8
VIRTUAL_SEGMENT_TOWNSHIP
 10
504306.00
 20
1145018.00
  0
VERTEX
  8
VIRTUAL_SEGMENT_TOWNSHIP
 10
504308.00
 20
1144838.00
  0
SEQEND
  8
VIRTUAL_SEGMENT_TOWNSHIP
  0
POLYLINE
  8
VIRTUAL_SEGMENT_LOT
 66
     1
 62
    14
  6
CONTINUOUS
  0
VERTEX
  8
VIRTUAL_SEGMENT_LOT
 10
500000.00
 20
1144836.00
  0
VERTEX
  8
VIRTUAL_SEGMENT_LOT
 10
500022.00
 20
1144850.00
  0
VERTEX
  8
VIRTUAL_SEGMENT_LOT
 10
500054.00
 20
1144867.00
  0
VERTEX
  8
VIRTUAL_SEGMENT_LOT
 10
500086.00
 20
1144894.00
  0
VERTEX
  8
VIRTUAL_SEGMENT_LOT
 10
500112.00
 20
1144918.00
  0
VERTEX
  8
VIRTUAL_SEGMENT_LOT
 10
500126.00
 20
1144943.00
  0
VERTEX
  8
VIRTUAL_SEGMENT_LOT
 10
500132.00
 20
1144973.00
  0
VERTEX
  8
VIRTUAL_SEGMENT_LOT
 10
500131.00
 20
1144990.00
  0
VERTEX
  8
VIRTUAL_SEGMENT_LOT
 10
500118.00
 20
1145008.00
  0
VERTEX
  8
VIRTUAL_SEGMENT_LOT
 10
500096.00
 20
1145018.00
  0
VERTEX
  8
VIRTUAL_SEGMENT_LOT
 10
500076.00
 20
1145023.00
  0
VERTEX
  8
VIRTUAL_SEGMENT_LOT
 10
500060.00
 20
1145017.00
  0
VERTEX
  8
VIRTUAL_SEGMENT_LOT
 10
500035.00
 20
1145013.00
  0
VERTEX
  8
VIRTUAL_SEGMENT_LOT
 10
500019.00
 20
1145014.00
  0
VERTEX
  8
VIRTUAL_SEGMENT_LOT
 10
500011.00
 20
1145019.00
  0
VERTEX
  8
VIRTUAL_SEGMENT_LOT
 10
500006.00
 20
1145029.00
  0
VERTEX
  8
VIRTUAL_SEGMENT_LOT
 10
500010.00
 20
1145037.00
  0
VERTEX
  8
VIRTUAL_SEGMENT_LOT
 10
500030.00
 20
1145034.00
  0
VERTEX
  8
VIRTUAL_SEGMENT_LOT
 10
500042.00
 20
1145042.00
  0
VERTEX
  8
VIRTUAL_SEGMENT_LOT
 10
500059.00
 20
1145039.00
  0
VERTEX
  8
VIRTUAL_SEGMENT_LOT
 10
500083.00
 20
1145039.00
  0
VERTEX
  8
VIRTUAL_SEGMENT_LOT
 10
500113.00
 20
1145041.00
  0
VERTEX
  8
VIRTUAL_SEGMENT_LOT
 10
500133.00
 20
1145043.00
  0
VERTEX
  8
VIRTUAL_SEGMENT_LOT
 10
500149.00
 20
1145041.00
  0
VERTEX
  8
VIRTUAL_SEGMENT_LOT
 10
500156.00
 20
1145033.00
  0
VERTEX
  8
VIRTUAL_SEGMENT_LOT
 10
500157.00
 20
1145021.00
  0
VERTEX
  8
VIRTUAL_SEGMENT_LOT
 10
500161.00
 20
1145010.00
  0
VERTEX
  8
VIRTUAL_SEGMENT_LOT
 10
500170.00
 20
1145001.00
  0
VERTEX
  8
VIRTUAL_SEGMENT_LOT
 10
500180.00
 20
1145002.00
  0
VERTEX
  8
VIRTUAL_SEGMENT_LOT
 10
500188.00
 20
1145007.00
  0
VERTEX
  8
VIRTUAL_SEGMENT_LOT
 10
500192.00
 20
1145014.00
  0
VERTEX
  8
VIRTUAL_SEGMENT_LOT
 10
500193.00
 20
1145021.00
  0
VERTEX
  8
VIRTUAL_SEGMENT_LOT
 10
500202.00
 20
1145026.00
  0
VERTEX
  8
VIRTUAL_SEGMENT_LOT
 10
500218.00
 20
1145029.00
  0
VERTEX
  8
VIRTUAL_SEGMENT_LOT
 10
500228.00
 20
1145036.00
  0
VERTEX
  8
VIRTUAL_SEGMENT_LOT
 10
500238.00
 20
1145037.00
  0
VERTEX
  8
VIRTUAL_SEGMENT_LOT
 10
500250.00
 20
1145032.00
  0
VERTEX
  8
VIRTUAL_SEGMENT_LOT
 10
500251.00
 20
1145028.00
  0
VERTEX
  8
VIRTUAL_SEGMENT_LOT
 10
500251.00
 20
1145018.00
  0
VERTEX
  8
VIRTUAL_SEGMENT_LOT
 10
500250.00
 20
1145011.00
  0
VERTEX
  8
VIRTUAL_SEGMENT_LOT
 10
500255.00
 20
1145007.00
  0
VERTEX
  8
VIRTUAL_SEGMENT_LOT
 10
500267.00
 20
1145011.00
  0
VERTEX
  8
VIRTUAL_SEGMENT_LOT
 10
500280.00
 20
1145014.00
  0
VERTEX
  8
VIRTUAL_SEGMENT_LOT
 10
500285.00
 20
1145009.00
  0
VERTEX
  8
VIRTUAL_SEGMENT_LOT
 10
500278.00
 20
1144991.00
  0
VERTEX
  8
VIRTUAL_SEGMENT_LOT
 10
500272.00
 20
1144967.00
  0
VERTEX
  8
VIRTUAL_SEGMENT_LOT
 10
500282.00
 20
1144955.00
  0
VERTEX
  8
VIRTUAL_SEGMENT_LOT
 10
500289.00
 20
1144952.00
  0
SEQEND
  8
VIRTUAL_SEGMENT_LOT
  0
POLYLINE
  8
BDRY_TWP_LOT_UNSURVEYED
 66
     1
 62
     2
  6
DIVIDE
  0
VERTEX
  8
BDRY_TWP_LOT_UNSURVEYED
 10
501913.00
 20
1145397.00
  0
VERTEX
  8
BDRY_TWP_LOT_UNSURVEYED
 10
501913.44
 20
1144690.88
  0
SEQEND
  8
BDRY_TWP_LOT_UNSURVEYED
  0
POLYLINE
  8
VIRTUAL_SEGMENT_LOT
 66
     1
 62
    14
  6
CONTINUOUS
  0
VERTEX
  8
VIRTUAL_SEGMENT_LOT
 10
501913.44
 20
1144690.88
  0
VERTEX
  8
VIRTUAL_SEGMENT_LOT
 10
501913.47
 20
1144643.00
  0
SEQEND
  8
VIRTUAL_SEGMENT_LOT
  0
POLYLINE
  8
BDRY_TWP_LOT_UNSURVEYED
 66
     1
 62
     2
  6
DIVIDE
  0
VERTEX
  8
BDRY_TWP_LOT_UNSURVEYED
 10
501913.47
 20
1144643.00
  0
VERTEX
  8
BDRY_TWP_LOT_UNSURVEYED
 10
501913.50
 20
1144590.38
  0
SEQEND
  8
BDRY_TWP_LOT_UNSURVEYED
  0
POLYLINE
  8
BDRY_TWP_LOT_UNSURVEYED
 66
     1
 62
     2
  6
DIVIDE
  0
VERTEX
  8
BDRY_TWP_LOT_UNSURVEYED
 10
505116.00
 20
1145440.00
  0
VERTEX
  8
BDRY_TWP_LOT_UNSURVEYED
 10
505114.41
 20
1144570.50
  0
SEQEND
  8
BDRY_TWP_LOT_UNSURVEYED
  0
POLYLINE
  8
VIRTUAL_SEGMENT_LOT
 66
     1
 62
    14
  6
CONTINUOUS
  0
VERTEX
  8
VIRTUAL_SEGMENT_LOT
 10
505114.41
 20
1144570.50
  0
VERTEX
  8
VIRTUAL_SEGMENT_LOT
 10
505114.31
 20
1144519.88
  0
SEQEND
  8
VIRTUAL_SEGMENT_LOT
  0
POLYLINE
  8
VIRTUAL_SEGMENT_LOT
 66
     1
 62
    14
  6
CONTINUOUS
  0
VERTEX
  8
VIRTUAL_SEGMENT_LOT
 10
500000.00
 20
1144650.00
  0
VERTEX
  8
VIRTUAL_SEGMENT_LOT
 10
500023.00
 20
1144638.00
  0
VERTEX
  8
VIRTUAL_SEGMENT_LOT
 10
500027.00
 20
1144626.00
  0
VERTEX
  8
VIRTUAL_SEGMENT_LOT
 10
500041.00
 20
1144628.00
  0
VERTEX
  8
VIRTUAL_SEGMENT_LOT
 10
500050.00
 20
1144633.00
  0
VERTEX
  8
VIRTUAL_SEGMENT_LOT
 10
500061.00
 20
1144622.00
  0
VERTEX
  8
VIRTUAL_SEGMENT_LOT
 10
500065.00
 20
1144606.00
  0
VERTEX
  8
VIRTUAL_SEGMENT_LOT
 10
500085.00
 20
1144605.00
  0
VERTEX
  8
VIRTUAL_SEGMENT_LOT
 10
500102.00
 20
1144615.00
  0
VERTEX
  8
VIRTUAL_SEGMENT_LOT
 10
500115.00
 20
1144614.00
  0
VERTEX
  8
VIRTUAL_SEGMENT_LOT
 10
500126.00
 20
1144598.00
  0
VERTEX
  8
VIRTUAL_SEGMENT_LOT
 10
500118.00
 20
1144585.00
  0
VERTEX
  8
VIRTUAL_SEGMENT_LOT
 10
500117.00
 20
1144570.00
  0
VERTEX
  8
VIRTUAL_SEGMENT_LOT
 10
500108.00
 20
1144559.00
  0
VERTEX
  8
VIRTUAL_SEGMENT_LOT
 10
500096.00
 20
1144547.00
  0
VERTEX
  8
VIRTUAL_SEGMENT_LOT
 10
500083.00
 20
1144536.00
  0
VERTEX
  8
VIRTUAL_SEGMENT_LOT
 10
500075.00
 20
1144525.00
  0
VERTEX
  8
VIRTUAL_SEGMENT_LOT
 10
500076.00
 20
1144518.00
  0
VERTEX
  8
VIRTUAL_SEGMENT_LOT
 10
500094.00
 20
1144513.00
  0
VERTEX
  8
VIRTUAL_SEGMENT_LOT
 10
500118.00
 20
1144520.00
  0
VERTEX
  8
VIRTUAL_SEGMENT_LOT
 10
500160.00
 20
1144542.00
  0
VERTEX
  8
VIRTUAL_SEGMENT_LOT
 10
500204.00
 20
1144568.00
  0
VERTEX
  8
VIRTUAL_SEGMENT_LOT
 10
500236.00
 20
1144583.00
  0
VERTEX
  8
VIRTUAL_SEGMENT_LOT
 10
500279.00
 20
1144594.00
  0
VERTEX
  8
VIRTUAL_SEGMENT_LOT
 10
500289.00
 20
1144598.00
  0
SEQEND
  8
VIRTUAL_SEGMENT_LOT
  0
POLYLINE
  8
BDRY_TWP_LOT_UNSURVEYED
 66
     1
 62
     2
  6
DIVIDE
  0
VERTEX
  8
BDRY_TWP_LOT_UNSURVEYED
 10
500289.00
 20
1144598.00
  0
VERTEX
  8
BDRY_TWP_LOT_UNSURVEYED
 10
500290.00
 20
1144504.00
  0
SEQEND
  8
BDRY_TWP_LOT_UNSURVEYED
  0
POLYLINE
  8
VIRTUAL_SEGMENT_LOT
 66
     1
 62
    14
  6
CONTINUOUS
  0
VERTEX
  8
VIRTUAL_SEGMENT_LOT
 10
500289.00
 20
1144598.00
  0
VERTEX
  8
VIRTUAL_SEGMENT_LOT
 10
500308.00
 20
1144611.00
  0
VERTEX
  8
VIRTUAL_SEGMENT_LOT
 10
500331.00
 20
1144633.00
  0
VERTEX
  8
VIRTUAL_SEGMENT_LOT
 10
500353.00
 20
1144653.00
  0
VERTEX
  8
VIRTUAL_SEGMENT_LOT
 10
500366.00
 20
1144671.00
  0
VERTEX
  8
VIRTUAL_SEGMENT_LOT
 10
500391.00
 20
1144693.00
  0
VERTEX
  8
VIRTUAL_SEGMENT_LOT
 10
500408.00
 20
1144710.00
  0
VERTEX
  8
VIRTUAL_SEGMENT_LOT
 10
500425.00
 20
1144721.00
  0
VERTEX
  8
VIRTUAL_SEGMENT_LOT
 10
500441.00
 20
1144723.00
  0
VERTEX
  8
VIRTUAL_SEGMENT_LOT
 10
500458.00
 20
1144719.00
  0
VERTEX
  8
VIRTUAL_SEGMENT_LOT
 10
500475.00
 20
1144712.00
  0
VERTEX
  8
VIRTUAL_SEGMENT_LOT
 10
500509.00
 20
1144713.00
  0
VERTEX
  8
VIRTUAL_SEGMENT_LOT
 10
500538.00
 20
1144723.00
  0
VERTEX
  8
VIRTUAL_SEGMENT_LOT
 10
500566.00
 20
1144737.00
  0
VERTEX
  8
VIRTUAL_SEGMENT_LOT
 10
500594.00
 20
1144752.00
  0
VERTEX
  8
VIRTUAL_SEGMENT_LOT
 10
500621.00
 20
1144755.00
  0
VERTEX
  8
VIRTUAL_SEGMENT_LOT
 10
500640.00
 20
1144763.00
  0
VERTEX
  8
VIRTUAL_SEGMENT_LOT
 10
500672.00
 20
1144784.00
  0
VERTEX
  8
VIRTUAL_SEGMENT_LOT
 10
500704.00
 20
1144806.00
  0
VERTEX
  8
VIRTUAL_SEGMENT_LOT
 10
500734.00
 20
1144818.00
  0
VERTEX
  8
VIRTUAL_SEGMENT_LOT
 10
500764.00
 20
1144822.00
  0
VERTEX
  8
VIRTUAL_SEGMENT_LOT
 10
500785.00
 20
1144822.00
  0
VERTEX
  8
VIRTUAL_SEGMENT_LOT
 10
500816.00
 20
1144827.00
  0
VERTEX
  8
VIRTUAL_SEGMENT_LOT
 10
500848.00
 20
1144826.00
  0
VERTEX
  8
VIRTUAL_SEGMENT_LOT
 10
500859.00
 20
1144814.00
  0
VERTEX
  8
VIRTUAL_SEGMENT_LOT
 10
500864.00
 20
1144805.00
  0
VERTEX
  8
VIRTUAL_SEGMENT_LOT
 10
500884.00
 20
1144805.00
  0
VERTEX
  8
VIRTUAL_SEGMENT_LOT
 10
500891.00
 20
1144795.00
  0
VERTEX
  8
VIRTUAL_SEGMENT_LOT
 10
500902.00
 20
1144795.00
  0
VERTEX
  8
VIRTUAL_SEGMENT_LOT
 10
500923.00
 20
1144806.00
  0
VERTEX
  8
VIRTUAL_SEGMENT_LOT
 10
500927.00
 20
1144793.00
  0
VERTEX
  8
VIRTUAL_SEGMENT_LOT
 10
500918.00
 20
1144787.00
  0
VERTEX
  8
VIRTUAL_SEGMENT_LOT
 10
500918.00
 20
1144776.00
  0
VERTEX
  8
VIRTUAL_SEGMENT_LOT
 10
500905.00
 20
1144773.00
  0
VERTEX
  8
VIRTUAL_SEGMENT_LOT
 10
500890.00
 20
1144771.00
  0
VERTEX
  8
VIRTUAL_SEGMENT_LOT
 10
500886.00
 20
1144763.00
  0
VERTEX
  8
VIRTUAL_SEGMENT_LOT
 10
500895.00
 20
1144755.00
  0
VERTEX
  8
VIRTUAL_SEGMENT_LOT
 10
500916.00
 20
1144754.00
  0
VERTEX
  8
VIRTUAL_SEGMENT_LOT
 10
500924.00
 20
1144752.00
  0
VERTEX
  8
VIRTUAL_SEGMENT_LOT
 10
500936.00
 20
1144740.00
  0
VERTEX
  8
VIRTUAL_SEGMENT_LOT
 10
500946.00
 20
1144723.00
  0
VERTEX
  8
VIRTUAL_SEGMENT_LOT
 10
500961.00
 20
1144719.00
  0
VERTEX
  8
VIRTUAL_SEGMENT_LOT
 10
500976.00
 20
1144704.00
  0
VERTEX
  8
VIRTUAL_SEGMENT_LOT
 10
500984.00
 20
1144692.00
  0
VERTEX
  8
VIRTUAL_SEGMENT_LOT
 10
500972.00
 20
1144683.00
  0
VERTEX
  8
VIRTUAL_SEGMENT_LOT
 10
500952.00
 20
1144667.00
  0
VERTEX
  8
VIRTUAL_SEGMENT_LOT
 10
500943.00
 20
1144650.00
  0
VERTEX
  8
VIRTUAL_SEGMENT_LOT
 10
500941.00
 20
1144636.00
  0
VERTEX
  8
VIRTUAL_SEGMENT_LOT
 10
500944.00
 20
1144618.00
  0
VERTEX
  8
VIRTUAL_SEGMENT_LOT
 10
500945.00
 20
1144605.00
  0
VERTEX
  8
VIRTUAL_SEGMENT_LOT
 10
500925.00
 20
1144587.00
  0
VERTEX
  8
VIRTUAL_SEGMENT_LOT
 10
500901.00
 20
1144569.00
  0
VERTEX
  8
VIRTUAL_SEGMENT_LOT
 10
500873.00
 20
1144558.00
  0
VERTEX
  8
VIRTUAL_SEGMENT_LOT
 10
500845.00
 20
1144559.00
  0
VERTEX
  8
VIRTUAL_SEGMENT_LOT
 10
500828.00
 20
1144560.00
  0
VERTEX
  8
VIRTUAL_SEGMENT_LOT
 10
500812.00
 20
1144569.00
  0
VERTEX
  8
VIRTUAL_SEGMENT_LOT
 10
500791.00
 20
1144568.00
  0
VERTEX
  8
VIRTUAL_SEGMENT_LOT
 10
500761.00
 20
1144586.00
  0
VERTEX
  8
VIRTUAL_SEGMENT_LOT
 10
500741.00
 20
1144599.00
  0
VERTEX
  8
VIRTUAL_SEGMENT_LOT
 10
500717.00
 20
1144607.00
  0
VERTEX
  8
VIRTUAL_SEGMENT_LOT
 10
500695.00
 20
1144603.00
  0
VERTEX
  8
VIRTUAL_SEGMENT_LOT
 10
500654.00
 20
1144590.00
  0
VERTEX
  8
VIRTUAL_SEGMENT_LOT
 10
500604.00
 20
1144575.00
  0
VERTEX
  8
VIRTUAL_SEGMENT_LOT
 10
500557.00
 20
1144561.00
  0
VERTEX
  8
VIRTUAL_SEGMENT_LOT
 10
500514.00
 20
1144551.00
  0
VERTEX
  8
VIRTUAL_SEGMENT_LOT
 10
500483.00
 20
1144544.00
  0
VERTEX
  8
VIRTUAL_SEGMENT_LOT
 10
500459.00
 20
1144539.00
  0
VERTEX
  8
VIRTUAL_SEGMENT_LOT
 10
500445.00
 20
1144542.00
  0
VERTEX
  8
VIRTUAL_SEGMENT_LOT
 10
500433.00
 20
1144542.00
  0
VERTEX
  8
VIRTUAL_SEGMENT_LOT
 10
500417.00
 20
1144533.00
  0
VERTEX
  8
VIRTUAL_SEGMENT_LOT
 10
500399.00
 20
1144521.00
  0
VERTEX
  8
VIRTUAL_SEGMENT_LOT
 10
500372.00
 20
1144512.00
  0
VERTEX
  8
VIRTUAL_SEGMENT_LOT
 10
500349.00
 20
1144509.00
  0
VERTEX
  8
VIRTUAL_SEGMENT_LOT
 10
500326.00
 20
1144506.00
  0
VERTEX
  8
VIRTUAL_SEGMENT_LOT
 10
500303.00
 20
1144500.00
  0
VERTEX
  8
VIRTUAL_SEGMENT_LOT
 10
500294.00
 20
1144502.00
  0
VERTEX
  8
VIRTUAL_SEGMENT_LOT
 10
500290.00
 20
1144504.00
  0
SEQEND
  8
VIRTUAL_SEGMENT_LOT
  0
POLYLINE
  8
VIRTUAL_SEGMENT_LOT
 66
     1
 62
    14
  6
CONTINUOUS
  0
VERTEX
  8
VIRTUAL_SEGMENT_LOT
 10
501913.50
 20
1144590.38
  0
VERTEX
  8
VIRTUAL_SEGMENT_LOT
 10
501913.59
 20
1144447.00
  0
SEQEND
  8
VIRTUAL_SEGMENT_LOT
  0
POLYLINE
  8
BDRY_TWP_LOT-SURVEYED
 66
     1
 62
     2
  6
DASHDOT2
  0
VERTEX
  8
BDRY_TWP_LOT-SURVEYED
 10
509121.00
 20
1145411.00
  0
VERTEX
  8
BDRY_TWP_LOT-SURVEYED
 10
509124.00
 20
1144424.00
  0
SEQEND
  8
BDRY_TWP_LOT-SURVEYED
  0
POLYLINE
  8
VIRTUAL_SEGMENT_LOT
 66
     1
 62
    14
  6
CONTINUOUS
  0
VERTEX
  8
VIRTUAL_SEGMENT_LOT
 10
500290.00
 20
1144504.00
  0
VERTEX
  8
VIRTUAL_SEGMENT_LOT
 10
500288.00
 20
1144505.00
  0
VERTEX
  8
VIRTUAL_SEGMENT_LOT
 10
500271.00
 20
1144510.00
  0
VERTEX
  8
VIRTUAL_SEGMENT_LOT
 10
500255.00
 20
1144502.00
  0
VERTEX
  8
VIRTUAL_SEGMENT_LOT
 10
500239.00
 20
1144497.00
  0
VERTEX
  8
VIRTUAL_SEGMENT_LOT
 10
500225.00
 20
1144499.00
  0
VERTEX
  8
VIRTUAL_SEGMENT_LOT
 10
500206.00
 20
1144498.00
  0
VERTEX
  8
VIRTUAL_SEGMENT_LOT
 10
500190.00
 20
1144491.00
  0
VERTEX
  8
VIRTUAL_SEGMENT_LOT
 10
500182.00
 20
1144484.00
  0
VERTEX
  8
VIRTUAL_SEGMENT_LOT
 10
500177.00
 20
1144477.00
  0
VERTEX
  8
VIRTUAL_SEGMENT_LOT
 10
500162.00
 20
1144471.00
  0
VERTEX
  8
VIRTUAL_SEGMENT_LOT
 10
500149.00
 20
1144460.00
  0
VERTEX
  8
VIRTUAL_SEGMENT_LOT
 10
500143.00
 20
1144452.00
  0
VERTEX
  8
VIRTUAL_SEGMENT_LOT
 10
500142.00
 20
1144441.00
  0
VERTEX
  8
VIRTUAL_SEGMENT_LOT
 10
500142.00
 20
1144428.00
  0
VERTEX
  8
VIRTUAL_SEGMENT_LOT
 10
500131.00
 20
1144424.00
  0
VERTEX
  8
VIRTUAL_SEGMENT_LOT
 10
500118.00
 20
1144423.00
  0
VERTEX
  8
VIRTUAL_SEGMENT_LOT
 10
500108.00
 20
1144419.00
  0
VERTEX
  8
VIRTUAL_SEGMENT_LOT
 10
500100.00
 20
1144405.00
  0
VERTEX
  8
VIRTUAL_SEGMENT_LOT
 10
500090.00
 20
1144395.00
  0
VERTEX
  8
VIRTUAL_SEGMENT_LOT
 10
500076.00
 20
1144386.00
  0
VERTEX
  8
VIRTUAL_SEGMENT_LOT
 10
500056.00
 20
1144379.00
  0
VERTEX
  8
VIRTUAL_SEGMENT_LOT
 10
500030.00
 20
1144370.00
  0
VERTEX
  8
VIRTUAL_SEGMENT_LOT
 10
500000.00
 20
1144357.00
  0
SEQEND
  8
VIRTUAL_SEGMENT_LOT
  0
POLYLINE
  8
BDRY_TWP_LOT-SURVEYED
 66
     1
 62
     2
  6
DASHDOT2
  0
VERTEX
  8
BDRY_TWP_LOT-SURVEYED
 10
502694.00
 20
1145410.00
  0
VERTEX
  8
BDRY_TWP_LOT-SURVEYED
 10
502698.00
 20
1144241.00
  0
VERTEX
  8
BDRY_TWP_LOT-SURVEYED
 10
502699.00
 20
1144223.00
  0
SEQEND
  8
BDRY_TWP_LOT-SURVEYED
  0
POLYLINE
  8
VIRTUAL_SEGMENT_LOT
 66
     1
 62
    14
  6
CONTINUOUS
  0
VERTEX
  8
VIRTUAL_SEGMENT_LOT
 10
501421.00
 20
1145389.00
  0
VERTEX
  8
VIRTUAL_SEGMENT_LOT
 10
501421.00
 20
1145381.00
  0
VERTEX
  8
VIRTUAL_SEGMENT_LOT
 10
501396.00
 20
1145373.00
  0
VERTEX
  8
VIRTUAL_SEGMENT_LOT
 10
501379.00
 20
1145362.00
  0
VERTEX
  8
VIRTUAL_SEGMENT_LOT
 10
501369.00
 20
1145351.00
  0
VERTEX
  8
VIRTUAL_SEGMENT_LOT
 10
501372.00
 20
1145335.00
  0
VERTEX
  8
VIRTUAL_SEGMENT_LOT
 10
501381.00
 20
1145311.00
  0
VERTEX
  8
VIRTUAL_SEGMENT_LOT
 10
501398.00
 20
1145282.00
  0
VERTEX
  8
VIRTUAL_SEGMENT_LOT
 10
501407.00
 20
1145270.00
  0
VERTEX
  8
VIRTUAL_SEGMENT_LOT
 10
501418.00
 20
1145262.00
  0
VERTEX
  8
VIRTUAL_SEGMENT_LOT
 10
501431.00
 20
1145268.00
  0
VERTEX
  8
VIRTUAL_SEGMENT_LOT
 10
501442.00
 20
1145278.00
  0
VERTEX
  8
VIRTUAL_SEGMENT_LOT
 10
501450.00
 20
1145282.00
  0
VERTEX
  8
VIRTUAL_SEGMENT_LOT
 10
501462.00
 20
1145275.00
  0
VERTEX
  8
VIRTUAL_SEGMENT_LOT
 10
501477.00
 20
1145270.00
  0
VERTEX
  8
VIRTUAL_SEGMENT_LOT
 10
501484.00
 20
1145274.00
  0
VERTEX
  8
VIRTUAL_SEGMENT_LOT
 10
501490.00
 20
1145288.00
  0
VERTEX
  8
VIRTUAL_SEGMENT_LOT
 10
501497.00
 20
1145301.00
  0
VERTEX
  8
VIRTUAL_SEGMENT_LOT
 10
501505.00
 20
1145298.00
  0
VERTEX
  8
VIRTUAL_SEGMENT_LOT
 10
501505.00
 20
1145280.00
  0
VERTEX
  8
VIRTUAL_SEGMENT_LOT
 10
501507.00
 20
1145266.00
  0
VERTEX
  8
VIRTUAL_SEGMENT_LOT
 10
501514.00
 20
1145258.00
  0
VERTEX
  8
VIRTUAL_SEGMENT_LOT
 10
501525.00
 20
1145262.00
  0
VERTEX
  8
VIRTUAL_SEGMENT_LOT
 10
501536.00
 20
1145272.00
  0
VERTEX
  8
VIRTUAL_SEGMENT_LOT
 10
501540.00
 20
1145289.00
  0
VERTEX
  8
VIRTUAL_SEGMENT_LOT
 10
501545.00
 20
1145301.00
  0
VERTEX
  8
VIRTUAL_SEGMENT_LOT
 10
501558.00
 20
1145303.00
  0
VERTEX
  8
VIRTUAL_SEGMENT_LOT
 10
501562.00
 20
1145312.00
  0
VERTEX
  8
VIRTUAL_SEGMENT_LOT
 10
501566.00
 20
1145316.00
  0
VERTEX
  8
VIRTUAL_SEGMENT_LOT
 10
501575.00
 20
1145317.00
  0
VERTEX
  8
VIRTUAL_SEGMENT_LOT
 10
501583.00
 20
1145305.00
  0
VERTEX
  8
VIRTUAL_SEGMENT_LOT
 10
501595.00
 20
1145306.00
  0
VERTEX
  8
VIRTUAL_SEGMENT_LOT
 10
501606.00
 20
1145318.00
  0
VERTEX
  8
VIRTUAL_SEGMENT_LOT
 10
501602.00
 20
1145326.00
  0
VERTEX
  8
VIRTUAL_SEGMENT_LOT
 10
501594.00
 20
1145337.00
  0
VERTEX
  8
VIRTUAL_SEGMENT_LOT
 10
501593.00
 20
1145347.00
  0
VERTEX
  8
VIRTUAL_SEGMENT_LOT
 10
501631.00
 20
1145367.00
  0
VERTEX
  8
VIRTUAL_SEGMENT_LOT
 10
501647.00
 20
1145366.00
  0
VERTEX
  8
VIRTUAL_SEGMENT_LOT
 10
501650.00
 20
1145351.00
  0
VERTEX
  8
VIRTUAL_SEGMENT_LOT
 10
501658.00
 20
1145343.00
  0
VERTEX
  8
VIRTUAL_SEGMENT_LOT
 10
501685.00
 20
1145334.00
  0
VERTEX
  8
VIRTUAL_SEGMENT_LOT
 10
501704.00
 20
1145319.00
  0
VERTEX
  8
VIRTUAL_SEGMENT_LOT
 10
501712.00
 20
1145305.00
  0
VERTEX
  8
VIRTUAL_SEGMENT_LOT
 10
501704.00
 20
1145298.00
  0
VERTEX
  8
VIRTUAL_SEGMENT_LOT
 10
501701.00
 20
1145288.00
  0
VERTEX
  8
VIRTUAL_SEGMENT_LOT
 10
501709.00
 20
1145273.00
  0
VERTEX
  8
VIRTUAL_SEGMENT_LOT
 10
501731.00
 20
1145254.00
  0
VERTEX
  8
VIRTUAL_SEGMENT_LOT
 10
501757.00
 20
1145236.00
  0
VERTEX
  8
VIRTUAL_SEGMENT_LOT
 10
501788.00
 20
1145215.00
  0
VERTEX
  8
VIRTUAL_SEGMENT_LOT
 10
501793.00
 20
1145197.00
  0
VERTEX
  8
VIRTUAL_SEGMENT_LOT
 10
501802.00
 20
1145173.00
  0
VERTEX
  8
VIRTUAL_SEGMENT_LOT
 10
501818.00
 20
1145152.00
  0
VERTEX
  8
VIRTUAL_SEGMENT_LOT
 10
501835.00
 20
1145142.00
  0
VERTEX
  8
VIRTUAL_SEGMENT_LOT
 10
501848.00
 20
1145141.00
  0
VERTEX
  8
VIRTUAL_SEGMENT_LOT
 10
501857.00
 20
1145132.00
  0
VERTEX
  8
VIRTUAL_SEGMENT_LOT
 10
501862.00
 20
1145119.00
  0
VERTEX
  8
VIRTUAL_SEGMENT_LOT
 10
501856.00
 20
1145090.00
  0
VERTEX
  8
VIRTUAL_SEGMENT_LOT
 10
501853.00
 20
1145044.00
  0
VERTEX
  8
VIRTUAL_SEGMENT_LOT
 10
501828.00
 20
1145021.00
  0
VERTEX
  8
VIRTUAL_SEGMENT_LOT
 10
501797.00
 20
1145023.00
  0
VERTEX
  8
VIRTUAL_SEGMENT_LOT
 10
501763.00
 20
1145026.00
  0
VERTEX
  8
VIRTUAL_SEGMENT_LOT
 10
501753.00
 20
1145029.00
  0
VERTEX
  8
VIRTUAL_SEGMENT_LOT
 10
501743.00
 20
1145040.00
  0
VERTEX
  8
VIRTUAL_SEGMENT_LOT
 10
501731.00
 20
1145044.00
  0
VERTEX
  8
VIRTUAL_SEGMENT_LOT
 10
501713.00
 20
1145039.00
  0
VERTEX
  8
VIRTUAL_SEGMENT_LOT
 10
501697.00
 20
1145027.00
  0
VERTEX
  8
VIRTUAL_SEGMENT_LOT
 10
501679.00
 20
1145012.00
  0
VERTEX
  8
VIRTUAL_SEGMENT_LOT
 10
501663.00
 20
1145002.00
  0
VERTEX
  8
VIRTUAL_SEGMENT_LOT
 10
501652.00
 20
1144998.00
  0
VERTEX
  8
VIRTUAL_SEGMENT_LOT
 10
501634.00
 20
1144997.00
  0
VERTEX
  8
VIRTUAL_SEGMENT_LOT
 10
501620.00
 20
1144997.00
  0
VERTEX
  8
VIRTUAL_SEGMENT_LOT
 10
501607.00
 20
1145004.00
  0
VERTEX
  8
VIRTUAL_SEGMENT_LOT
 10
501592.00
 20
1145007.00
  0
VERTEX
  8
VIRTUAL_SEGMENT_LOT
 10
501576.00
 20
1145001.00
  0
VERTEX
  8
VIRTUAL_SEGMENT_LOT
 10
501564.00
 20
1144991.00
  0
VERTEX
  8
VIRTUAL_SEGMENT_LOT
 10
501553.00
 20
1144983.00
  0
VERTEX
  8
VIRTUAL_SEGMENT_LOT
 10
501537.00
 20
1144969.00
  0
VERTEX
  8
VIRTUAL_SEGMENT_LOT
 10
501541.00
 20
1144954.00
  0
VERTEX
  8
VIRTUAL_SEGMENT_LOT
 10
501547.00
 20
1144930.00
  0
VERTEX
  8
VIRTUAL_SEGMENT_LOT
 10
501551.00
 20
1144907.00
  0
VERTEX
  8
VIRTUAL_SEGMENT_LOT
 10
501546.00
 20
1144884.00
  0
VERTEX
  8
VIRTUAL_SEGMENT_LOT
 10
501538.00
 20
1144868.00
  0
VERTEX
  8
VIRTUAL_SEGMENT_LOT
 10
501531.00
 20
1144864.00
  0
VERTEX
  8
VIRTUAL_SEGMENT_LOT
 10
501515.00
 20
1144863.00
  0
VERTEX
  8
VIRTUAL_SEGMENT_LOT
 10
501472.00
 20
1144893.00
  0
VERTEX
  8
VIRTUAL_SEGMENT_LOT
 10
501449.00
 20
1144901.00
  0
VERTEX
  8
VIRTUAL_SEGMENT_LOT
 10
501433.00
 20
1144908.00
  0
VERTEX
  8
VIRTUAL_SEGMENT_LOT
 10
501422.00
 20
1144911.00
  0
VERTEX
  8
VIRTUAL_SEGMENT_LOT
 10
501410.00
 20
1144906.00
  0
VERTEX
  8
VIRTUAL_SEGMENT_LOT
 10
501397.00
 20
1144894.00
  0
VERTEX
  8
VIRTUAL_SEGMENT_LOT
 10
501382.00
 20
1144883.00
  0
VERTEX
  8
VIRTUAL_SEGMENT_LOT
 10
501367.00
 20
1144877.00
  0
VERTEX
  8
VIRTUAL_SEGMENT_LOT
 10
501352.00
 20
1144861.00
  0
VERTEX
  8
VIRTUAL_SEGMENT_LOT
 10
501370.00
 20
1144852.00
  0
VERTEX
  8
VIRTUAL_SEGMENT_LOT
 10
501401.00
 20
1144838.00
  0
VERTEX
  8
VIRTUAL_SEGMENT_LOT
 10
501432.00
 20
1144825.00
  0
VERTEX
  8
VIRTUAL_SEGMENT_LOT
 10
501448.00
 20
1144815.00
  0
VERTEX
  8
VIRTUAL_SEGMENT_LOT
 10
501458.00
 20
1144809.00
  0
VERTEX
  8
VIRTUAL_SEGMENT_LOT
 10
501462.00
 20
1144794.00
  0
VERTEX
  8
VIRTUAL_SEGMENT_LOT
 10
501458.00
 20
1144772.00
  0
VERTEX
  8
VIRTUAL_SEGMENT_LOT
 10
501457.00
 20
1144749.00
  0
VERTEX
  8
VIRTUAL_SEGMENT_LOT
 10
501454.00
 20
1144730.00
  0
VERTEX
  8
VIRTUAL_SEGMENT_LOT
 10
501448.00
 20
1144720.00
  0
VERTEX
  8
VIRTUAL_SEGMENT_LOT
 10
501443.00
 20
1144714.00
  0
VERTEX
  8
VIRTUAL_SEGMENT_LOT
 10
501424.00
 20
1144712.00
  0
VERTEX
  8
VIRTUAL_SEGMENT_LOT
 10
501400.00
 20
1144709.00
  0
VERTEX
  8
VIRTUAL_SEGMENT_LOT
 10
501375.00
 20
1144706.00
  0
VERTEX
  8
VIRTUAL_SEGMENT_LOT
 10
501354.00
 20
1144711.00
  0
VERTEX
  8
VIRTUAL_SEGMENT_LOT
 10
501329.00
 20
1144719.00
  0
VERTEX
  8
VIRTUAL_SEGMENT_LOT
 10
501306.00
 20
1144720.00
  0
VERTEX
  8
VIRTUAL_SEGMENT_LOT
 10
501283.00
 20
1144722.00
  0
VERTEX
  8
VIRTUAL_SEGMENT_LOT
 10
501274.00
 20
1144720.00
  0
VERTEX
  8
VIRTUAL_SEGMENT_LOT
 10
501261.00
 20
1144714.00
  0
VERTEX
  8
VIRTUAL_SEGMENT_LOT
 10
501253.00
 20
1144707.00
  0
VERTEX
  8
VIRTUAL_SEGMENT_LOT
 10
501245.00
 20
1144639.00
  0
VERTEX
  8
VIRTUAL_SEGMENT_LOT
 10
501231.00
 20
1144621.00
  0
VERTEX
  8
VIRTUAL_SEGMENT_LOT
 10
501231.00
 20
1144609.00
  0
VERTEX
  8
VIRTUAL_SEGMENT_LOT
 10
501234.00
 20
1144588.00
  0
VERTEX
  8
VIRTUAL_SEGMENT_LOT
 10
501228.00
 20
1144577.00
  0
VERTEX
  8
VIRTUAL_SEGMENT_LOT
 10
501225.00
 20
1144566.00
  0
VERTEX
  8
VIRTUAL_SEGMENT_LOT
 10
501231.00
 20
1144558.00
  0
VERTEX
  8
VIRTUAL_SEGMENT_LOT
 10
501246.00
 20
1144551.00
  0
VERTEX
  8
VIRTUAL_SEGMENT_LOT
 10
501267.00
 20
1144545.00
  0
VERTEX
  8
VIRTUAL_SEGMENT_LOT
 10
501291.00
 20
1144538.00
  0
VERTEX
  8
VIRTUAL_SEGMENT_LOT
 10
501302.00
 20
1144527.00
  0
VERTEX
  8
VIRTUAL_SEGMENT_LOT
 10
501319.00
 20
1144519.00
  0
VERTEX
  8
VIRTUAL_SEGMENT_LOT
 10
501335.00
 20
1144510.00
  0
VERTEX
  8
VIRTUAL_SEGMENT_LOT
 10
501347.00
 20
1144491.00
  0
VERTEX
  8
VIRTUAL_SEGMENT_LOT
 10
501350.00
 20
1144475.00
  0
VERTEX
  8
VIRTUAL_SEGMENT_LOT
 10
501352.00
 20
1144461.00
  0
VERTEX
  8
VIRTUAL_SEGMENT_LOT
 10
501343.00
 20
1144428.00
  0
VERTEX
  8
VIRTUAL_SEGMENT_LOT
 10
501323.00
 20
1144422.00
  0
VERTEX
  8
VIRTUAL_SEGMENT_LOT
 10
501302.00
 20
1144415.00
  0
VERTEX
  8
VIRTUAL_SEGMENT_LOT
 10
501289.00
 20
1144414.00
  0
VERTEX
  8
VIRTUAL_SEGMENT_LOT
 10
501279.00
 20
1144414.00
  0
VERTEX
  8
VIRTUAL_SEGMENT_LOT
 10
501276.00
 20
1144407.00
  0
VERTEX
  8
VIRTUAL_SEGMENT_LOT
 10
501291.00
 20
1144401.00
  0
VERTEX
  8
VIRTUAL_SEGMENT_LOT
 10
501301.00
 20
1144396.00
  0
VERTEX
  8
VIRTUAL_SEGMENT_LOT
 10
501298.00
 20
1144392.00
  0
VERTEX
  8
VIRTUAL_SEGMENT_LOT
 10
501285.00
 20
1144379.00
  0
VERTEX
  8
VIRTUAL_SEGMENT_LOT
 10
501284.00
 20
1144371.00
  0
VERTEX
  8
VIRTUAL_SEGMENT_LOT
 10
501283.00
 20
1144357.00
  0
VERTEX
  8
VIRTUAL_SEGMENT_LOT
 10
501278.00
 20
1144350.00
  0
VERTEX
  8
VIRTUAL_SEGMENT_LOT
 10
501263.00
 20
1144345.00
  0
VERTEX
  8
VIRTUAL_SEGMENT_LOT
 10
501253.00
 20
1144343.00
  0
VERTEX
  8
VIRTUAL_SEGMENT_LOT
 10
501256.00
 20
1144329.00
  0
VERTEX
  8
VIRTUAL_SEGMENT_LOT
 10
501260.00
 20
1144314.00
  0
VERTEX
  8
VIRTUAL_SEGMENT_LOT
 10
501245.00
 20
1144307.00
  0
VERTEX
  8
VIRTUAL_SEGMENT_LOT
 10
501229.00
 20
1144304.00
  0
VERTEX
  8
VIRTUAL_SEGMENT_LOT
 10
501219.00
 20
1144317.00
  0
VERTEX
  8
VIRTUAL_SEGMENT_LOT
 10
501211.00
 20
1144319.00
  0
VERTEX
  8
VIRTUAL_SEGMENT_LOT
 10
501201.00
 20
1144316.00
  0
VERTEX
  8
VIRTUAL_SEGMENT_LOT
 10
501183.00
 20
1144285.00
  0
VERTEX
  8
VIRTUAL_SEGMENT_LOT
 10
501173.00
 20
1144278.00
  0
VERTEX
  8
VIRTUAL_SEGMENT_LOT
 10
501170.00
 20
1144268.00
  0
VERTEX
  8
VIRTUAL_SEGMENT_LOT
 10
501171.00
 20
1144247.00
  0
VERTEX
  8
VIRTUAL_SEGMENT_LOT
 10
501169.00
 20
1144234.00
  0
VERTEX
  8
VIRTUAL_SEGMENT_LOT
 10
501164.00
 20
1144225.00
  0
VERTEX
  8
VIRTUAL_SEGMENT_LOT
 10
501157.00
 20
1144218.00
  0
VERTEX
  8
VIRTUAL_SEGMENT_LOT
 10
501138.00
 20
1144218.00
  0
VERTEX
  8
VIRTUAL_SEGMENT_LOT
 10
501126.00
 20
1144221.00
  0
VERTEX
  8
VIRTUAL_SEGMENT_LOT
 10
501122.00
 20
1144225.00
  0
SEQEND
  8
VIRTUAL_SEGMENT_LOT
  0
POLYLINE
  8
VIRTUAL_SEGMENT_LOT
 66
     1
 62
    14
  6
CONTINUOUS
  0
VERTEX
  8
VIRTUAL_SEGMENT_LOT
 10
509124.00
 20
1144424.00
  0
VERTEX
  8
VIRTUAL_SEGMENT_LOT
 10
509123.00
 20
1144197.00
  0
SEQEND
  8
VIRTUAL_SEGMENT_LOT
  0
POLYLINE
  8
BDRY_TWP_LOT_UNSURVEYED
 66
     1
 62
     2
  6
DIVIDE
  0
VERTEX
  8
BDRY_TWP_LOT_UNSURVEYED
 10
501913.59
 20
1144447.00
  0
VERTEX
  8
BDRY_TWP_LOT_UNSURVEYED
 10
501913.75
 20
1144184.38
  0
SEQEND
  8
BDRY_TWP_LOT_UNSURVEYED
  0
POLYLINE
  8
BDRY_TWP
 66
     1
 62
     4
  6
CONTINUOUS
  0
VERTEX
  8
BDRY_TWP
 10
504308.00
 20
1144838.00
  0
VERTEX
  8
BDRY_TWP
 10
504312.00
 20
1144164.00
  0
SEQEND
  8
BDRY_TWP
  0
POLYLINE
  8
VIRTUAL_SEGMENT_LOT
 66
     1
 62
    14
  6
CONTINUOUS
  0
VERTEX
  8
VIRTUAL_SEGMENT_LOT
 10
501122.00
 20
1144225.00
  0
VERTEX
  8
VIRTUAL_SEGMENT_LOT
 10
501111.00
 20
1144233.00
  0
VERTEX
  8
VIRTUAL_SEGMENT_LOT
 10
501094.00
 20
1144242.00
  0
VERTEX
  8
VIRTUAL_SEGMENT_LOT
 10
501066.00
 20
1144245.00
  0
VERTEX
  8
VIRTUAL_SEGMENT_LOT
 10
501035.00
 20
1144246.00
  0
VERTEX
  8
VIRTUAL_SEGMENT_LOT
 10
501004.00
 20
1144244.00
  0
VERTEX
  8
VIRTUAL_SEGMENT_LOT
 10
500972.00
 20
1144242.00
  0
VERTEX
  8
VIRTUAL_SEGMENT_LOT
 10
500950.00
 20
1144241.00
  0
VERTEX
  8
VIRTUAL_SEGMENT_LOT
 10
500925.00
 20
1144239.00
  0
VERTEX
  8
VIRTUAL_SEGMENT_LOT
 10
500902.00
 20
1144238.00
  0
VERTEX
  8
VIRTUAL_SEGMENT_LOT
 10
500877.00
 20
1144236.00
  0
VERTEX
  8
VIRTUAL_SEGMENT_LOT
 10
500865.00
 20
1144238.00
  0
VERTEX
  8
VIRTUAL_SEGMENT_LOT
 10
500856.00
 20
1144243.00
  0
VERTEX
  8
VIRTUAL_SEGMENT_LOT
 10
500854.00
 20
1144249.00
  0
VERTEX
  8
VIRTUAL_SEGMENT_LOT
 10
500860.00
 20
1144257.00
  0
VERTEX
  8
VIRTUAL_SEGMENT_LOT
 10
500854.00
 20
1144266.00
  0
VERTEX
  8
VIRTUAL_SEGMENT_LOT
 10
500843.00
 20
1144268.00
  0
VERTEX
  8
VIRTUAL_SEGMENT_LOT
 10
500823.00
 20
1144257.00
  0
VERTEX
  8
VIRTUAL_SEGMENT_LOT
 10
500805.00
 20
1144248.00
  0
VERTEX
  8
VIRTUAL_SEGMENT_LOT
 10
500788.00
 20
1144247.00
  0
VERTEX
  8
VIRTUAL_SEGMENT_LOT
 10
500780.00
 20
1144261.00
  0
VERTEX
  8
VIRTUAL_SEGMENT_LOT
 10
500779.00
 20
1144277.00
  0
VERTEX
  8
VIRTUAL_SEGMENT_LOT
 10
500772.00
 20
1144291.00
  0
VERTEX
  8
VIRTUAL_SEGMENT_LOT
 10
500764.00
 20
1144303.00
  0
VERTEX
  8
VIRTUAL_SEGMENT_LOT
 10
500742.00
 20
1144300.00
  0
VERTEX
  8
VIRTUAL_SEGMENT_LOT
 10
500720.00
 20
1144292.00
  0
VERTEX
  8
VIRTUAL_SEGMENT_LOT
 10
500709.00
 20
1144274.00
  0
VERTEX
  8
VIRTUAL_SEGMENT_LOT
 10
500697.00
 20
1144248.00
  0
VERTEX
  8
VIRTUAL_SEGMENT_LOT
 10
500682.00
 20
1144248.00
  0
VERTEX
  8
VIRTUAL_SEGMENT_LOT
 10
500682.00
 20
1144239.00
  0
VERTEX
  8
VIRTUAL_SEGMENT_LOT
 10
500686.00
 20
1144222.00
  0
VERTEX
  8
VIRTUAL_SEGMENT_LOT
 10
500695.00
 20
1144206.00
  0
VERTEX
  8
VIRTUAL_SEGMENT_LOT
 10
500706.00
 20
1144190.00
  0
VERTEX
  8
VIRTUAL_SEGMENT_LOT
 10
500706.00
 20
1144174.00
  0
VERTEX
  8
VIRTUAL_SEGMENT_LOT
 10
500701.00
 20
1144171.00
  0
VERTEX
  8
VIRTUAL_SEGMENT_LOT
 10
500675.00
 20
1144186.00
  0
VERTEX
  8
VIRTUAL_SEGMENT_LOT
 10
500644.00
 20
1144206.00
  0
VERTEX
  8
VIRTUAL_SEGMENT_LOT
 10
500610.00
 20
1144203.00
  0
VERTEX
  8
VIRTUAL_SEGMENT_LOT
 10
500562.00
 20
1144208.00
  0
VERTEX
  8
VIRTUAL_SEGMENT_LOT
 10
500529.00
 20
1144205.00
  0
VERTEX
  8
VIRTUAL_SEGMENT_LOT
 10
500516.00
 20
1144206.00
  0
VERTEX
  8
VIRTUAL_SEGMENT_LOT
 10
500497.00
 20
1144216.00
  0
VERTEX
  8
VIRTUAL_SEGMENT_LOT
 10
500477.00
 20
1144232.00
  0
VERTEX
  8
VIRTUAL_SEGMENT_LOT
 10
500455.00
 20
1144239.00
  0
VERTEX
  8
VIRTUAL_SEGMENT_LOT
 10
500421.00
 20
1144235.00
  0
VERTEX
  8
VIRTUAL_SEGMENT_LOT
 10
500410.00
 20
1144227.00
  0
VERTEX
  8
VIRTUAL_SEGMENT_LOT
 10
500390.00
 20
1144209.00
  0
VERTEX
  8
VIRTUAL_SEGMENT_LOT
 10
500358.00
 20
1144193.00
  0
VERTEX
  8
VIRTUAL_SEGMENT_LOT
 10
500334.00
 20
1144187.00
  0
VERTEX
  8
VIRTUAL_SEGMENT_LOT
 10
500313.00
 20
1144190.00
  0
VERTEX
  8
VIRTUAL_SEGMENT_LOT
 10
500304.00
 20
1144164.00
  0
VERTEX
  8
VIRTUAL_SEGMENT_LOT
 10
500300.00
 20
1144156.00
  0
VERTEX
  8
VIRTUAL_SEGMENT_LOT
 10
500287.00
 20
1144150.00
  0
SEQEND
  8
VIRTUAL_SEGMENT_LOT
  0
POLYLINE
  8
BDRY_TWP_LOT_UNSURVEYED
 66
     1
 62
     2
  6
DIVIDE
  0
VERTEX
  8
BDRY_TWP_LOT_UNSURVEYED
 10
506714.94
 20
1144995.88
  0
VERTEX
  8
BDRY_TWP_LOT_UNSURVEYED
 10
506720.75
 20
1144143.25
  0
SEQEND
  8
BDRY_TWP_LOT_UNSURVEYED
  0
POLYLINE
  8
VIRTUAL_SEGMENT_LOT
 66
     1
 62
    14
  6
CONTINUOUS
  0
VERTEX
  8
VIRTUAL_SEGMENT_LOT
 10
501913.75
 20
1144184.38
  0
VERTEX
  8
VIRTUAL_SEGMENT_LOT
 10
501913.78
 20
1144141.13
  0
SEQEND
  8
VIRTUAL_SEGMENT_LOT
  0
POLYLINE
  8
VIRTUAL_SEGMENT_LOT
 66
     1
 62
    14
  6
CONTINUOUS
  0
VERTEX
  8
VIRTUAL_SEGMENT_LOT
 10
500287.00
 20
1144150.00
  0
VERTEX
  8
VIRTUAL_SEGMENT_LOT
 10
500285.00
 20
1144149.00
  0
VERTEX
  8
VIRTUAL_SEGMENT_LOT
 10
500270.00
 20
1144141.00
  0
VERTEX
  8
VIRTUAL_SEGMENT_LOT
 10
500268.00
 20
1144126.00
  0
VERTEX
  8
VIRTUAL_SEGMENT_LOT
 10
500271.00
 20
1144115.00
  0
VERTEX
  8
VIRTUAL_SEGMENT_LOT
 10
500258.00
 20
1144105.00
  0
VERTEX
  8
VIRTUAL_SEGMENT_LOT
 10
500235.00
 20
1144096.00
  0
VERTEX
  8
VIRTUAL_SEGMENT_LOT
 10
500220.00
 20
1144089.00
  0
VERTEX
  8
VIRTUAL_SEGMENT_LOT
 10
500211.00
 20
1144095.00
  0
VERTEX
  8
VIRTUAL_SEGMENT_LOT
 10
500207.00
 20
1144105.00
  0
VERTEX
  8
VIRTUAL_SEGMENT_LOT
 10
500197.00
 20
1144099.00
  0
VERTEX
  8
VIRTUAL_SEGMENT_LOT
 10
500182.00
 20
1144095.00
  0
VERTEX
  8
VIRTUAL_SEGMENT_LOT
 10
500164.00
 20
1144101.00
  0
VERTEX
  8
VIRTUAL_SEGMENT_LOT
 10
500151.00
 20
1144110.00
  0
VERTEX
  8
VIRTUAL_SEGMENT_LOT
 10
500128.00
 20
1144113.00
  0
VERTEX
  8
VIRTUAL_SEGMENT_LOT
 10
500114.00
 20
1144127.00
  0
VERTEX
  8
VIRTUAL_SEGMENT_LOT
 10
500105.00
 20
1144138.00
  0
VERTEX
  8
VIRTUAL_SEGMENT_LOT
 10
500086.00
 20
1144140.00
  0
VERTEX
  8
VIRTUAL_SEGMENT_LOT
 10
500061.00
 20
1144150.00
  0
VERTEX
  8
VIRTUAL_SEGMENT_LOT
 10
500051.00
 20
1144158.00
  0
VERTEX
  8
VIRTUAL_SEGMENT_LOT
 10
500056.00
 20
1144164.00
  0
VERTEX
  8
VIRTUAL_SEGMENT_LOT
 10
500072.00
 20
1144178.00
  0
VERTEX
  8
VIRTUAL_SEGMENT_LOT
 10
500074.00
 20
1144192.00
  0
VERTEX
  8
VIRTUAL_SEGMENT_LOT
 10
500062.00
 20
1144209.00
  0
VERTEX
  8
VIRTUAL_SEGMENT_LOT
 10
500048.00
 20
1144221.00
  0
VERTEX
  8
VIRTUAL_SEGMENT_LOT
 10
500035.00
 20
1144229.00
  0
VERTEX
  8
VIRTUAL_SEGMENT_LOT
 10
500023.00
 20
1144231.00
  0
VERTEX
  8
VIRTUAL_SEGMENT_LOT
 10
500013.00
 20
1144228.00
  0
VERTEX
  8
VIRTUAL_SEGMENT_LOT
 10
500000.00
 20
1144234.00
  0
SEQEND
  8
VIRTUAL_SEGMENT_LOT
  0
POLYLINE
  8
VIRTUAL_SEGMENT_TOWNSHIP
 66
     1
 62
    14
  6
CONTINUOUS
  0
VERTEX
  8
VIRTUAL_SEGMENT_TOWNSHIP
 10
504312.00
 20
1144164.00
  0
VERTEX
  8
VIRTUAL_SEGMENT_TOWNSHIP
 10
504327.00
 20
1144161.00
  0
VERTEX
  8
VIRTUAL_SEGMENT_TOWNSHIP
 10
504352.00
 20
1144152.00
  0
VERTEX
  8
VIRTUAL_SEGMENT_TOWNSHIP
 10
504358.00
 20
1144149.00
  0
VERTEX
  8
VIRTUAL_SEGMENT_TOWNSHIP
 10
504362.00
 20
1144140.00
  0
VERTEX
  8
VIRTUAL_SEGMENT_TOWNSHIP
 10
504352.00
 20
1144123.00
  0
VERTEX
  8
VIRTUAL_SEGMENT_TOWNSHIP
 10
504335.00
 20
1144107.00
  0
VERTEX
  8
VIRTUAL_SEGMENT_TOWNSHIP
 10
504326.00
 20
1144103.00
  0
VERTEX
  8
VIRTUAL_SEGMENT_TOWNSHIP
 10
504317.00
 20
1144093.00
  0
VERTEX
  8
VIRTUAL_SEGMENT_TOWNSHIP
 10
504315.00
 20
1144080.00
  0
VERTEX
  8
VIRTUAL_SEGMENT_TOWNSHIP
 10
504313.00
 20
1144065.00
  0
SEQEND
  8
VIRTUAL_SEGMENT_TOWNSHIP
  0
POLYLINE
  8
BDRY_TWP_LOT_UNSURVEYED
 66
     1
 62
     2
  6
DIVIDE
  0
VERTEX
  8
BDRY_TWP_LOT_UNSURVEYED
 10
503504.00
 20
1145425.00
  0
VERTEX
  8
BDRY_TWP_LOT_UNSURVEYED
 10
503503.00
 20
1144027.00
  0
VERTEX
  8
BDRY_TWP_LOT_UNSURVEYED
 10
503503.00
 20
1144025.00
  0
SEQEND
  8
BDRY_TWP_LOT_UNSURVEYED
  0
POLYLINE
  8
VIRTUAL_SEGMENT_LOT
 66
     1
 62
    14
  6
CONTINUOUS
  0
VERTEX
  8
VIRTUAL_SEGMENT_LOT
 10
506720.75
 20
1144143.25
  0
VERTEX
  8
VIRTUAL_SEGMENT_LOT
 10
506721.88
 20
1143975.63
  0
SEQEND
  8
VIRTUAL_SEGMENT_LOT
  0
POLYLINE
  8
VIRTUAL_SEGMENT_TOWNSHIP
 66
     1
 62
    14
  6
CONTINUOUS
  0
VERTEX
  8
VIRTUAL_SEGMENT_TOWNSHIP
 10
503503.00
 20
1144025.00
  0
VERTEX
  8
VIRTUAL_SEGMENT_TOWNSHIP
 10
503509.00
 20
1144025.00
  0
VERTEX
  8
VIRTUAL_SEGMENT_TOWNSHIP
 10
503524.00
 20
1144034.00
  0
VERTEX
  8
VIRTUAL_SEGMENT_TOWNSHIP
 10
503535.00
 20
1144043.00
  0
VERTEX
  8
VIRTUAL_SEGMENT_TOWNSHIP
 10
503545.00
 20
1144043.00
  0
VERTEX
  8
VIRTUAL_SEGMENT_TOWNSHIP
 10
503556.00
 20
1144036.00
  0
VERTEX
  8
VIRTUAL_SEGMENT_TOWNSHIP
 10
503549.00
 20
1144022.00
  0
VERTEX
  8
VIRTUAL_SEGMENT_TOWNSHIP
 10
503557.00
 20
1144015.00
  0
VERTEX
  8
VIRTUAL_SEGMENT_TOWNSHIP
 10
503567.00
 20
1144026.00
  0
VERTEX
  8
VIRTUAL_SEGMENT_TOWNSHIP
 10
503579.00
 20
1144029.00
  0
VERTEX
  8
VIRTUAL_SEGMENT_TOWNSHIP
 10
503580.00
 20
1144023.00
  0
VERTEX
  8
VIRTUAL_SEGMENT_TOWNSHIP
 10
503579.00
 20
1144010.00
  0
VERTEX
  8
VIRTUAL_SEGMENT_TOWNSHIP
 10
503586.00
 20
1144006.00
  0
VERTEX
  8
VIRTUAL_SEGMENT_TOWNSHIP
 10
503596.00
 20
1144012.00
  0
VERTEX
  8
VIRTUAL_SEGMENT_TOWNSHIP
 10
503601.00
 20
1144019.00
  0
VERTEX
  8
VIRTUAL_SEGMENT_TOWNSHIP
 10
503610.00
 20
1144023.00
  0
VERTEX
  8
VIRTUAL_SEGMENT_TOWNSHIP
 10
503627.00
 20
1144026.00
  0
VERTEX
  8
VIRTUAL_SEGMENT_TOWNSHIP
 10
503652.00
 20
1144027.00
  0
VERTEX
  8
VIRTUAL_SEGMENT_TOWNSHIP
 10
503676.00
 20
1144028.00
  0
VERTEX
  8
VIRTUAL_SEGMENT_TOWNSHIP
 10
503677.00
 20
1144023.00
  0
VERTEX
  8
VIRTUAL_SEGMENT_TOWNSHIP
 10
503666.00
 20
1144014.00
  0
VERTEX
  8
VIRTUAL_SEGMENT_TOWNSHIP
 10
503657.00
 20
1144009.00
  0
VERTEX
  8
VIRTUAL_SEGMENT_TOWNSHIP
 10
503651.00
 20
1143997.00
  0
VERTEX
  8
VIRTUAL_SEGMENT_TOWNSHIP
 10
503651.00
 20
1143980.00
  0
VERTEX
  8
VIRTUAL_SEGMENT_TOWNSHIP
 10
503659.00
 20
1143974.00
  0
VERTEX
  8
VIRTUAL_SEGMENT_TOWNSHIP
 10
503666.00
 20
1143961.00
  0
VERTEX
  8
VIRTUAL_SEGMENT_TOWNSHIP
 10
503662.00
 20
1143957.00
  0
VERTEX
  8
VIRTUAL_SEGMENT_TOWNSHIP
 10
503653.00
 20
1143956.00
  0
VERTEX
  8
VIRTUAL_SEGMENT_TOWNSHIP
 10
503643.00
 20
1143951.00
  0
VERTEX
  8
VIRTUAL_SEGMENT_TOWNSHIP
 10
503634.00
 20
1143939.00
  0
VERTEX
  8
VIRTUAL_SEGMENT_TOWNSHIP
 10
503634.00
 20
1143920.00
  0
VERTEX
  8
VIRTUAL_SEGMENT_TOWNSHIP
 10
503642.00
 20
1143911.00
  0
VERTEX
  8
VIRTUAL_SEGMENT_TOWNSHIP
 10
503652.00
 20
1143912.00
  0
VERTEX
  8
VIRTUAL_SEGMENT_TOWNSHIP
 10
503675.00
 20
1143922.00
  0
VERTEX
  8
VIRTUAL_SEGMENT_TOWNSHIP
 10
503693.00
 20
1143928.00
  0
VERTEX
  8
VIRTUAL_SEGMENT_TOWNSHIP
 10
503709.00
 20
1143925.00
  0
VERTEX
  8
VIRTUAL_SEGMENT_TOWNSHIP
 10
503741.00
 20
1143924.00
  0
VERTEX
  8
VIRTUAL_SEGMENT_TOWNSHIP
 10
503767.00
 20
1143927.00
  0
VERTEX
  8
VIRTUAL_SEGMENT_TOWNSHIP
 10
503789.00
 20
1143938.00
  0
VERTEX
  8
VIRTUAL_SEGMENT_TOWNSHIP
 10
503813.00
 20
1143955.00
  0
VERTEX
  8
VIRTUAL_SEGMENT_TOWNSHIP
 10
503833.00
 20
1143969.00
  0
VERTEX
  8
VIRTUAL_SEGMENT_TOWNSHIP
 10
503840.00
 20
1143978.00
  0
VERTEX
  8
VIRTUAL_SEGMENT_TOWNSHIP
 10
503842.00
 20
1143992.00
  0
VERTEX
  8
VIRTUAL_SEGMENT_TOWNSHIP
 10
503839.00
 20
1143998.00
  0
VERTEX
  8
VIRTUAL_SEGMENT_TOWNSHIP
 10
503826.00
 20
1144003.00
  0
VERTEX
  8
VIRTUAL_SEGMENT_TOWNSHIP
 10
503813.00
 20
1144008.00
  0
VERTEX
  8
VIRTUAL_SEGMENT_TOWNSHIP
 10
503808.00
 20
1144018.00
  0
VERTEX
  8
VIRTUAL_SEGMENT_TOWNSHIP
 10
503801.00
 20
1144022.00
  0
VERTEX
  8
VIRTUAL_SEGMENT_TOWNSHIP
 10
503802.00
 20
1144031.00
  0
VERTEX
  8
VIRTUAL_SEGMENT_TOWNSHIP
 10
503810.00
 20
1144040.00
  0
VERTEX
  8
VIRTUAL_SEGMENT_TOWNSHIP
 10
503817.00
 20
1144046.00
  0
VERTEX
  8
VIRTUAL_SEGMENT_TOWNSHIP
 10
503823.00
 20
1144045.00
  0
VERTEX
  8
VIRTUAL_SEGMENT_TOWNSHIP
 10
503834.00
 20
1144038.00
  0
VERTEX
  8
VIRTUAL_SEGMENT_TOWNSHIP
 10
503846.00
 20
1144032.00
  0
VERTEX
  8
VIRTUAL_SEGMENT_TOWNSHIP
 10
503857.00
 20
1144032.00
  0
VERTEX
  8
VIRTUAL_SEGMENT_TOWNSHIP
 10
503863.00
 20
1144040.00
  0
VERTEX
  8
VIRTUAL_SEGMENT_TOWNSHIP
 10
503868.00
 20
1144050.00
  0
VERTEX
  8
VIRTUAL_SEGMENT_TOWNSHIP
 10
503861.00
 20
1144062.00
  0
VERTEX
  8
VIRTUAL_SEGMENT_TOWNSHIP
 10
503855.00
 20
1144073.00
  0
VERTEX
  8
VIRTUAL_SEGMENT_TOWNSHIP
 10
503856.00
 20
1144089.00
  0
VERTEX
  8
VIRTUAL_SEGMENT_TOWNSHIP
 10
503852.00
 20
1144106.00
  0
VERTEX
  8
VIRTUAL_SEGMENT_TOWNSHIP
 10
503843.00
 20
1144122.00
  0
VERTEX
  8
VIRTUAL_SEGMENT_TOWNSHIP
 10
503823.00
 20
1144138.00
  0
VERTEX
  8
VIRTUAL_SEGMENT_TOWNSHIP
 10
503802.00
 20
1144149.00
  0
VERTEX
  8
VIRTUAL_SEGMENT_TOWNSHIP
 10
503787.00
 20
1144168.00
  0
VERTEX
  8
VIRTUAL_SEGMENT_TOWNSHIP
 10
503772.00
 20
1144179.00
  0
VERTEX
  8
VIRTUAL_SEGMENT_TOWNSHIP
 10
503750.00
 20
1144185.00
  0
VERTEX
  8
VIRTUAL_SEGMENT_TOWNSHIP
 10
503731.00
 20
1144189.00
  0
VERTEX
  8
VIRTUAL_SEGMENT_TOWNSHIP
 10
503714.00
 20
1144197.00
  0
VERTEX
  8
VIRTUAL_SEGMENT_TOWNSHIP
 10
503707.00
 20
1144218.00
  0
VERTEX
  8
VIRTUAL_SEGMENT_TOWNSHIP
 10
503677.00
 20
1144224.00
  0
VERTEX
  8
VIRTUAL_SEGMENT_TOWNSHIP
 10
503645.00
 20
1144235.00
  0
VERTEX
  8
VIRTUAL_SEGMENT_TOWNSHIP
 10
503614.00
 20
1144253.00
  0
VERTEX
  8
VIRTUAL_SEGMENT_TOWNSHIP
 10
503600.00
 20
1144250.00
  0
VERTEX
  8
VIRTUAL_SEGMENT_TOWNSHIP
 10
503586.00
 20
1144246.00
  0
VERTEX
  8
VIRTUAL_SEGMENT_TOWNSHIP
 10
503567.00
 20
1144255.00
  0
VERTEX
  8
VIRTUAL_SEGMENT_TOWNSHIP
 10
503574.00
 20
1144266.00
  0
VERTEX
  8
VIRTUAL_SEGMENT_TOWNSHIP
 10
503581.00
 20
1144273.00
  0
VERTEX
  8
VIRTUAL_SEGMENT_TOWNSHIP
 10
503593.00
 20
1144276.00
  0
VERTEX
  8
VIRTUAL_SEGMENT_TOWNSHIP
 10
503604.00
 20
1144287.00
  0
VERTEX
  8
VIRTUAL_SEGMENT_TOWNSHIP
 10
503619.00
 20
1144295.00
  0
VERTEX
  8
VIRTUAL_SEGMENT_TOWNSHIP
 10
503637.00
 20
1144293.00
  0
VERTEX
  8
VIRTUAL_SEGMENT_TOWNSHIP
 10
503662.00
 20
1144285.00
  0
VERTEX
  8
VIRTUAL_SEGMENT_TOWNSHIP
 10
503681.00
 20
1144286.00
  0
VERTEX
  8
VIRTUAL_SEGMENT_TOWNSHIP
 10
503692.00
 20
1144280.00
  0
VERTEX
  8
VIRTUAL_SEGMENT_TOWNSHIP
 10
503703.00
 20
1144263.00
  0
VERTEX
  8
VIRTUAL_SEGMENT_TOWNSHIP
 10
503712.00
 20
1144259.00
  0
VERTEX
  8
VIRTUAL_SEGMENT_TOWNSHIP
 10
503740.00
 20
1144260.00
  0
VERTEX
  8
VIRTUAL_SEGMENT_TOWNSHIP
 10
503765.00
 20
1144259.00
  0
VERTEX
  8
VIRTUAL_SEGMENT_TOWNSHIP
 10
503780.00
 20
1144257.00
  0
VERTEX
  8
VIRTUAL_SEGMENT_TOWNSHIP
 10
503797.00
 20
1144267.00
  0
VERTEX
  8
VIRTUAL_SEGMENT_TOWNSHIP
 10
503808.00
 20
1144281.00
  0
VERTEX
  8
VIRTUAL_SEGMENT_TOWNSHIP
 10
503817.00
 20
1144292.00
  0
VERTEX
  8
VIRTUAL_SEGMENT_TOWNSHIP
 10
503823.00
 20
1144296.00
  0
VERTEX
  8
VIRTUAL_SEGMENT_TOWNSHIP
 10
503841.00
 20
1144294.00
  0
VERTEX
  8
VIRTUAL_SEGMENT_TOWNSHIP
 10
503866.00
 20
1144299.00
  0
VERTEX
  8
VIRTUAL_SEGMENT_TOWNSHIP
 10
503888.00
 20
1144311.00
  0
VERTEX
  8
VIRTUAL_SEGMENT_TOWNSHIP
 10
503901.00
 20
1144326.00
  0
VERTEX
  8
VIRTUAL_SEGMENT_TOWNSHIP
 10
503913.00
 20
1144339.00
  0
VERTEX
  8
VIRTUAL_SEGMENT_TOWNSHIP
 10
503922.00
 20
1144353.00
  0
VERTEX
  8
VIRTUAL_SEGMENT_TOWNSHIP
 10
503958.00
 20
1144375.00
  0
VERTEX
  8
VIRTUAL_SEGMENT_TOWNSHIP
 10
503983.00
 20
1144390.00
  0
VERTEX
  8
VIRTUAL_SEGMENT_TOWNSHIP
 10
504009.00
 20
1144404.00
  0
VERTEX
  8
VIRTUAL_SEGMENT_TOWNSHIP
 10
504017.00
 20
1144403.00
  0
VERTEX
  8
VIRTUAL_SEGMENT_TOWNSHIP
 10
504025.00
 20
1144396.00
  0
VERTEX
  8
VIRTUAL_SEGMENT_TOWNSHIP
 10
504026.00
 20
1144381.00
  0
VERTEX
  8
VIRTUAL_SEGMENT_TOWNSHIP
 10
504031.00
 20
1144369.00
  0
VERTEX
  8
VIRTUAL_SEGMENT_TOWNSHIP
 10
504044.00
 20
1144362.00
  0
VERTEX
  8
VIRTUAL_SEGMENT_TOWNSHIP
 10
504054.00
 20
1144353.00
  0
VERTEX
  8
VIRTUAL_SEGMENT_TOWNSHIP
 10
504062.00
 20
1144342.00
  0
VERTEX
  8
VIRTUAL_SEGMENT_TOWNSHIP
 10
504057.00
 20
1144327.00
  0
VERTEX
  8
VIRTUAL_SEGMENT_TOWNSHIP
 10
504047.00
 20
1144317.00
  0
VERTEX
  8
VIRTUAL_SEGMENT_TOWNSHIP
 10
504030.00
 20
1144309.00
  0
VERTEX
  8
VIRTUAL_SEGMENT_TOWNSHIP
 10
504011.00
 20
1144300.00
  0
VERTEX
  8
VIRTUAL_SEGMENT_TOWNSHIP
 10
503998.00
 20
1144290.00
  0
VERTEX
  8
VIRTUAL_SEGMENT_TOWNSHIP
 10
503994.00
 20
1144277.00
  0
VERTEX
  8
VIRTUAL_SEGMENT_TOWNSHIP
 10
503992.00
 20
1144264.00
  0
VERTEX
  8
VIRTUAL_SEGMENT_TOWNSHIP
 10
504000.00
 20
1144249.00
  0
VERTEX
  8
VIRTUAL_SEGMENT_TOWNSHIP
 10
503999.00
 20
1144236.00
  0
VERTEX
  8
VIRTUAL_SEGMENT_TOWNSHIP
 10
503994.00
 20
1144228.00
  0
VERTEX
  8
VIRTUAL_SEGMENT_TOWNSHIP
 10
503988.00
 20
1144209.00
  0
VERTEX
  8
VIRTUAL_SEGMENT_TOWNSHIP
 10
503985.00
 20
1144185.00
  0
VERTEX
  8
VIRTUAL_SEGMENT_TOWNSHIP
 10
504002.00
 20
1144163.00
  0
VERTEX
  8
VIRTUAL_SEGMENT_TOWNSHIP
 10
504024.00
 20
1144158.00
  0
VERTEX
  8
VIRTUAL_SEGMENT_TOWNSHIP
 10
504052.00
 20
1144151.00
  0
VERTEX
  8
VIRTUAL_SEGMENT_TOWNSHIP
 10
504089.00
 20
1144142.00
  0
VERTEX
  8
VIRTUAL_SEGMENT_TOWNSHIP
 10
504104.00
 20
1144138.00
  0
VERTEX
  8
VIRTUAL_SEGMENT_TOWNSHIP
 10
504118.00
 20
1144143.00
  0
VERTEX
  8
VIRTUAL_SEGMENT_TOWNSHIP
 10
504131.00
 20
1144146.00
  0
VERTEX
  8
VIRTUAL_SEGMENT_TOWNSHIP
 10
504144.00
 20
1144138.00
  0
VERTEX
  8
VIRTUAL_SEGMENT_TOWNSHIP
 10
504154.00
 20
1144127.00
  0
VERTEX
  8
VIRTUAL_SEGMENT_TOWNSHIP
 10
504162.00
 20
1144124.00
  0
VERTEX
  8
VIRTUAL_SEGMENT_TOWNSHIP
 10
504183.00
 20
1144129.00
  0
VERTEX
  8
VIRTUAL_SEGMENT_TOWNSHIP
 10
504196.00
 20
1144142.00
  0
VERTEX
  8
VIRTUAL_SEGMENT_TOWNSHIP
 10
504202.00
 20
1144155.00
  0
VERTEX
  8
VIRTUAL_SEGMENT_TOWNSHIP
 10
504212.00
 20
1144163.00
  0
VERTEX
  8
VIRTUAL_SEGMENT_TOWNSHIP
 10
504228.00
 20
1144169.00
  0
VERTEX
  8
VIRTUAL_SEGMENT_TOWNSHIP
 10
504248.00
 20
1144174.00
  0
VERTEX
  8
VIRTUAL_SEGMENT_TOWNSHIP
 10
504269.00
 20
1144174.00
  0
VERTEX
  8
VIRTUAL_SEGMENT_TOWNSHIP
 10
504297.00
 20
1144166.00
  0
VERTEX
  8
VIRTUAL_SEGMENT_TOWNSHIP
 10
504312.00
 20
1144164.00
  0
SEQEND
  8
VIRTUAL_SEGMENT_TOWNSHIP
  0
POLYLINE
  8
BDRY_TWP
 66
     1
 62
     4
  6
CONTINUOUS
  0
VERTEX
  8
BDRY_TWP
 10
504313.00
 20
1144065.00
  0
VERTEX
  8
BDRY_TWP
 10
504313.00
 20
1144052.00
  0
VERTEX
  8
BDRY_TWP
 10
504314.00
 20
1143893.00
  0
SEQEND
  8
BDRY_TWP
  0
POLYLINE
  8
BDRY_TWP_LOT_UNSURVEYED
 66
     1
 62
     2
  6
DIVIDE
  0
VERTEX
  8
BDRY_TWP_LOT_UNSURVEYED
 10
506721.88
 20
1143975.63
  0
VERTEX
  8
BDRY_TWP_LOT_UNSURVEYED
 10
506722.50
 20
1143884.50
  0
SEQEND
  8
BDRY_TWP_LOT_UNSURVEYED
  0
POLYLINE
  8
VIRTUAL_SEGMENT_TOWNSHIP
 66
     1
 62
    14
  6
CONTINUOUS
  0
VERTEX
  8
VIRTUAL_SEGMENT_TOWNSHIP
 10
502700.00
 20
1144090.00
  0
VERTEX
  8
VIRTUAL_SEGMENT_TOWNSHIP
 10
502690.00
 20
1144085.00
  0
VERTEX
  8
VIRTUAL_SEGMENT_TOWNSHIP
 10
502687.00
 20
1144068.00
  0
VERTEX
  8
VIRTUAL_SEGMENT_TOWNSHIP
 10
502680.00
 20
1144056.00
  0
VERTEX
  8
VIRTUAL_SEGMENT_TOWNSHIP
 10
502669.00
 20
1144052.00
  0
VERTEX
  8
VIRTUAL_SEGMENT_TOWNSHIP
 10
502657.00
 20
1144055.00
  0
VERTEX
  8
VIRTUAL_SEGMENT_TOWNSHIP
 10
502643.00
 20
1144044.00
  0
VERTEX
  8
VIRTUAL_SEGMENT_TOWNSHIP
 10
502644.00
 20
1144026.00
  0
VERTEX
  8
VIRTUAL_SEGMENT_TOWNSHIP
 10
502637.00
 20
1144008.00
  0
VERTEX
  8
VIRTUAL_SEGMENT_TOWNSHIP
 10
502630.00
 20
1143993.00
  0
VERTEX
  8
VIRTUAL_SEGMENT_TOWNSHIP
 10
502625.00
 20
1143967.00
  0
VERTEX
  8
VIRTUAL_SEGMENT_TOWNSHIP
 10
502616.00
 20
1143946.00
  0
VERTEX
  8
VIRTUAL_SEGMENT_TOWNSHIP
 10
502602.00
 20
1143928.00
  0
VERTEX
  8
VIRTUAL_SEGMENT_TOWNSHIP
 10
502587.00
 20
1143910.00
  0
VERTEX
  8
VIRTUAL_SEGMENT_TOWNSHIP
 10
502572.00
 20
1143897.00
  0
VERTEX
  8
VIRTUAL_SEGMENT_TOWNSHIP
 10
502563.00
 20
1143888.00
  0
VERTEX
  8
VIRTUAL_SEGMENT_TOWNSHIP
 10
502548.00
 20
1143874.00
  0
VERTEX
  8
VIRTUAL_SEGMENT_TOWNSHIP
 10
502537.00
 20
1143877.00
  0
VERTEX
  8
VIRTUAL_SEGMENT_TOWNSHIP
 10
502534.00
 20
1143896.00
  0
VERTEX
  8
VIRTUAL_SEGMENT_TOWNSHIP
 10
502515.00
 20
1143903.00
  0
VERTEX
  8
VIRTUAL_SEGMENT_TOWNSHIP
 10
502493.00
 20
1143893.00
  0
VERTEX
  8
VIRTUAL_SEGMENT_TOWNSHIP
 10
502473.00
 20
1143885.00
  0
VERTEX
  8
VIRTUAL_SEGMENT_TOWNSHIP
 10
502460.00
 20
1143891.00
  0
VERTEX
  8
VIRTUAL_SEGMENT_TOWNSHIP
 10
502436.00
 20
1143886.00
  0
VERTEX
  8
VIRTUAL_SEGMENT_TOWNSHIP
 10
502410.00
 20
1143877.00
  0
VERTEX
  8
VIRTUAL_SEGMENT_TOWNSHIP
 10
502397.00
 20
1143876.00
  0
VERTEX
  8
VIRTUAL_SEGMENT_TOWNSHIP
 10
502386.00
 20
1143883.00
  0
VERTEX
  8
VIRTUAL_SEGMENT_TOWNSHIP
 10
502373.00
 20
1143892.00
  0
VERTEX
  8
VIRTUAL_SEGMENT_TOWNSHIP
 10
502370.00
 20
1143903.00
  0
VERTEX
  8
VIRTUAL_SEGMENT_TOWNSHIP
 10
502375.00
 20
1143916.00
  0
VERTEX
  8
VIRTUAL_SEGMENT_TOWNSHIP
 10
502385.00
 20
1143929.00
  0
VERTEX
  8
VIRTUAL_SEGMENT_TOWNSHIP
 10
502399.00
 20
1143943.00
  0
VERTEX
  8
VIRTUAL_SEGMENT_TOWNSHIP
 10
502406.00
 20
1143955.00
  0
VERTEX
  8
VIRTUAL_SEGMENT_TOWNSHIP
 10
502409.00
 20
1143955.00
  0
VERTEX
  8
VIRTUAL_SEGMENT_TOWNSHIP
 10
502418.00
 20
1143944.00
  0
VERTEX
  8
VIRTUAL_SEGMENT_TOWNSHIP
 10
502431.00
 20
1143940.00
  0
VERTEX
  8
VIRTUAL_SEGMENT_TOWNSHIP
 10
502452.00
 20
1143947.00
  0
VERTEX
  8
VIRTUAL_SEGMENT_TOWNSHIP
 10
502458.00
 20
1143950.00
  0
VERTEX
  8
VIRTUAL_SEGMENT_TOWNSHIP
 10
502463.00
 20
1143954.00
  0
VERTEX
  8
VIRTUAL_SEGMENT_TOWNSHIP
 10
502468.00
 20
1143962.00
  0
VERTEX
  8
VIRTUAL_SEGMENT_TOWNSHIP
 10
502470.00
 20
1143976.00
  0
VERTEX
  8
VIRTUAL_SEGMENT_TOWNSHIP
 10
502468.00
 20
1143991.00
  0
VERTEX
  8
VIRTUAL_SEGMENT_TOWNSHIP
 10
502470.00
 20
1144002.00
  0
VERTEX
  8
VIRTUAL_SEGMENT_TOWNSHIP
 10
502475.00
 20
1144007.00
  0
VERTEX
  8
VIRTUAL_SEGMENT_TOWNSHIP
 10
502487.00
 20
1144009.00
  0
VERTEX
  8
VIRTUAL_SEGMENT_TOWNSHIP
 10
502496.00
 20
1144016.00
  0
VERTEX
  8
VIRTUAL_SEGMENT_TOWNSHIP
 10
502499.00
 20
1144025.00
  0
VERTEX
  8
VIRTUAL_SEGMENT_TOWNSHIP
 10
502500.00
 20
1144037.00
  0
VERTEX
  8
VIRTUAL_SEGMENT_TOWNSHIP
 10
502506.00
 20
1144044.00
  0
VERTEX
  8
VIRTUAL_SEGMENT_TOWNSHIP
 10
502518.00
 20
1144044.00
  0
VERTEX
  8
VIRTUAL_SEGMENT_TOWNSHIP
 10
502540.00
 20
1144061.00
  0
VERTEX
  8
VIRTUAL_SEGMENT_TOWNSHIP
 10
502559.00
 20
1144082.00
  0
VERTEX
  8
VIRTUAL_SEGMENT_TOWNSHIP
 10
502574.00
 20
1144098.00
  0
VERTEX
  8
VIRTUAL_SEGMENT_TOWNSHIP
 10
502573.00
 20
1144109.00
  0
VERTEX
  8
VIRTUAL_SEGMENT_TOWNSHIP
 10
502570.00
 20
1144120.00
  0
VERTEX
  8
VIRTUAL_SEGMENT_TOWNSHIP
 10
502554.00
 20
1144124.00
  0
VERTEX
  8
VIRTUAL_SEGMENT_TOWNSHIP
 10
502539.00
 20
1144131.00
  0
VERTEX
  8
VIRTUAL_SEGMENT_TOWNSHIP
 10
502530.00
 20
1144138.00
  0
VERTEX
  8
VIRTUAL_SEGMENT_TOWNSHIP
 10
502528.00
 20
1144156.00
  0
VERTEX
  8
VIRTUAL_SEGMENT_TOWNSHIP
 10
502526.00
 20
1144168.00
  0
VERTEX
  8
VIRTUAL_SEGMENT_TOWNSHIP
 10
502540.00
 20
1144187.00
  0
VERTEX
  8
VIRTUAL_SEGMENT_TOWNSHIP
 10
502554.00
 20
1144202.00
  0
VERTEX
  8
VIRTUAL_SEGMENT_TOWNSHIP
 10
502579.00
 20
1144217.00
  0
VERTEX
  8
VIRTUAL_SEGMENT_TOWNSHIP
 10
502613.00
 20
1144224.00
  0
VERTEX
  8
VIRTUAL_SEGMENT_TOWNSHIP
 10
502651.00
 20
1144227.00
  0
VERTEX
  8
VIRTUAL_SEGMENT_TOWNSHIP
 10
502693.00
 20
1144223.00
  0
VERTEX
  8
VIRTUAL_SEGMENT_TOWNSHIP
 10
502699.00
 20
1144223.00
  0
SEQEND
  8
VIRTUAL_SEGMENT_TOWNSHIP
  0
POLYLINE
  8
VIRTUAL_SEGMENT_TOWNSHIP
 66
     1
 62
    14
  6
CONTINUOUS
  0
VERTEX
  8
VIRTUAL_SEGMENT_TOWNSHIP
 10
504314.00
 20
1143893.00
  0
VERTEX
  8
VIRTUAL_SEGMENT_TOWNSHIP
 10
504317.00
 20
1143886.00
  0
VERTEX
  8
VIRTUAL_SEGMENT_TOWNSHIP
 10
504315.00
 20
1143871.00
  0
VERTEX
  8
VIRTUAL_SEGMENT_TOWNSHIP
 10
504314.00
 20
1143869.00
  0
SEQEND
  8
VIRTUAL_SEGMENT_TOWNSHIP
  0
POLYLINE
  8
VIRTUAL_SEGMENT_LOT
 66
     1
 62
    14
  6
CONTINUOUS
  0
VERTEX
  8
VIRTUAL_SEGMENT_LOT
 10
506722.50
 20
1143884.50
  0
VERTEX
  8
VIRTUAL_SEGMENT_LOT
 10
506722.75
 20
1143849.88
  0
SEQEND
  8
VIRTUAL_SEGMENT_LOT
  0
POLYLINE
  8
BDRY_TWP
 66
     1
 62
     4
  6
CONTINUOUS
  0
VERTEX
  8
BDRY_TWP
 10
504314.00
 20
1143869.00
  0
VERTEX
  8
BDRY_TWP
 10
504314.00
 20
1143830.00
  0
SEQEND
  8
BDRY_TWP
  0
POLYLINE
  8
VIRTUAL_SEGMENT_TOWNSHIP
 66
     1
 62
    14
  6
CONTINUOUS
  0
VERTEX
  8
VIRTUAL_SEGMENT_TOWNSHIP
 10
504314.00
 20
1143830.00
  0
VERTEX
  8
VIRTUAL_SEGMENT_TOWNSHIP
 10
504315.00
 20
1143829.00
  0
VERTEX
  8
VIRTUAL_SEGMENT_TOWNSHIP
 10
504321.00
 20
1143821.00
  0
SEQEND
  8
VIRTUAL_SEGMENT_TOWNSHIP
  0
POLYLINE
  8
BDRY_TWP_LOT_UNSURVEYED
 66
     1
 62
     2
  6
DIVIDE
  0
VERTEX
  8
BDRY_TWP_LOT_UNSURVEYED
 10
505114.31
 20
1144519.88
  0
VERTEX
  8
BDRY_TWP_LOT_UNSURVEYED
 10
505113.00
 20
1143819.00
  0
SEQEND
  8
BDRY_TWP_LOT_UNSURVEYED
  0
POLYLINE
  8
BDRY_TWP
 66
     1
 62
     4
  6
CONTINUOUS
  0
VERTEX
  8
BDRY_TWP
 10
504321.00
 20
1143821.00
  0
VERTEX
  8
BDRY_TWP
 10
505113.00
 20
1143819.00
  0
SEQEND
  8
BDRY_TWP
  0
POLYLINE
  8
BDRY_TWP
 66
     1
 62
     4
  6
CONTINUOUS
  0
VERTEX
  8
BDRY_TWP
 10
505113.00
 20
1143819.00
  0
VERTEX
  8
BDRY_TWP
 10
505129.00
 20
1143817.00
  0
SEQEND
  8
BDRY_TWP
  0
POLYLINE
  8
VIRTUAL_SEGMENT_TOWNSHIP
 66
     1
 62
    14
  6
CONTINUOUS
  0
VERTEX
  8
VIRTUAL_SEGMENT_TOWNSHIP
 10
505242.00
 20
1143813.00
  0
VERTEX
  8
VIRTUAL_SEGMENT_TOWNSHIP
 10
505246.00
 20
1143817.00
  0
VERTEX
  8
VIRTUAL_SEGMENT_TOWNSHIP
 10
505263.00
 20
1143835.00
  0
VERTEX
  8
VIRTUAL_SEGMENT_TOWNSHIP
 10
505268.00
 20
1143845.00
  0
VERTEX
  8
VIRTUAL_SEGMENT_TOWNSHIP
 10
505275.00
 20
1143873.00
  0
VERTEX
  8
VIRTUAL_SEGMENT_TOWNSHIP
 10
505281.00
 20
1143904.00
  0
VERTEX
  8
VIRTUAL_SEGMENT_TOWNSHIP
 10
505290.00
 20
1143927.00
  0
VERTEX
  8
VIRTUAL_SEGMENT_TOWNSHIP
 10
505296.00
 20
1143947.00
  0
VERTEX
  8
VIRTUAL_SEGMENT_TOWNSHIP
 10
505306.00
 20
1143969.00
  0
VERTEX
  8
VIRTUAL_SEGMENT_TOWNSHIP
 10
505317.00
 20
1143980.00
  0
VERTEX
  8
VIRTUAL_SEGMENT_TOWNSHIP
 10
505331.00
 20
1143989.00
  0
VERTEX
  8
VIRTUAL_SEGMENT_TOWNSHIP
 10
505356.00
 20
1143996.00
  0
VERTEX
  8
VIRTUAL_SEGMENT_TOWNSHIP
 10
505383.00
 20
1143999.00
  0
VERTEX
  8
VIRTUAL_SEGMENT_TOWNSHIP
 10
505413.00
 20
1143998.00
  0
VERTEX
  8
VIRTUAL_SEGMENT_TOWNSHIP
 10
505428.00
 20
1143989.00
  0
VERTEX
  8
VIRTUAL_SEGMENT_TOWNSHIP
 10
505446.00
 20
1143979.00
  0
VERTEX
  8
VIRTUAL_SEGMENT_TOWNSHIP
 10
505461.00
 20
1143964.00
  0
VERTEX
  8
VIRTUAL_SEGMENT_TOWNSHIP
 10
505483.00
 20
1143959.00
  0
VERTEX
  8
VIRTUAL_SEGMENT_TOWNSHIP
 10
505507.00
 20
1143969.00
  0
VERTEX
  8
VIRTUAL_SEGMENT_TOWNSHIP
 10
505530.00
 20
1143981.00
  0
VERTEX
  8
VIRTUAL_SEGMENT_TOWNSHIP
 10
505557.00
 20
1143996.00
  0
VERTEX
  8
VIRTUAL_SEGMENT_TOWNSHIP
 10
505579.00
 20
1144008.00
  0
VERTEX
  8
VIRTUAL_SEGMENT_TOWNSHIP
 10
505601.00
 20
1144006.00
  0
VERTEX
  8
VIRTUAL_SEGMENT_TOWNSHIP
 10
505621.00
 20
1144012.00
  0
VERTEX
  8
VIRTUAL_SEGMENT_TOWNSHIP
 10
505654.00
 20
1144028.00
  0
VERTEX
  8
VIRTUAL_SEGMENT_TOWNSHIP
 10
505686.00
 20
1144046.00
  0
VERTEX
  8
VIRTUAL_SEGMENT_TOWNSHIP
 10
505714.00
 20
1144052.00
  0
VERTEX
  8
VIRTUAL_SEGMENT_TOWNSHIP
 10
505734.00
 20
1144053.00
  0
VERTEX
  8
VIRTUAL_SEGMENT_TOWNSHIP
 10
505746.00
 20
1144048.00
  0
VERTEX
  8
VIRTUAL_SEGMENT_TOWNSHIP
 10
505759.00
 20
1144034.00
  0
VERTEX
  8
VIRTUAL_SEGMENT_TOWNSHIP
 10
505774.00
 20
1144026.00
  0
VERTEX
  8
VIRTUAL_SEGMENT_TOWNSHIP
 10
505794.00
 20
1144026.00
  0
VERTEX
  8
VIRTUAL_SEGMENT_TOWNSHIP
 10
505818.00
 20
1144016.00
  0
VERTEX
  8
VIRTUAL_SEGMENT_TOWNSHIP
 10
505826.00
 20
1144006.00
  0
VERTEX
  8
VIRTUAL_SEGMENT_TOWNSHIP
 10
505839.00
 20
1143982.00
  0
VERTEX
  8
VIRTUAL_SEGMENT_TOWNSHIP
 10
505854.00
 20
1143968.00
  0
VERTEX
  8
VIRTUAL_SEGMENT_TOWNSHIP
 10
505861.00
 20
1143952.00
  0
VERTEX
  8
VIRTUAL_SEGMENT_TOWNSHIP
 10
505855.00
 20
1143935.00
  0
VERTEX
  8
VIRTUAL_SEGMENT_TOWNSHIP
 10
505842.00
 20
1143930.00
  0
VERTEX
  8
VIRTUAL_SEGMENT_TOWNSHIP
 10
505832.00
 20
1143924.00
  0
VERTEX
  8
VIRTUAL_SEGMENT_TOWNSHIP
 10
505828.00
 20
1143915.00
  0
VERTEX
  8
VIRTUAL_SEGMENT_TOWNSHIP
 10
505834.00
 20
1143896.00
  0
VERTEX
  8
VIRTUAL_SEGMENT_TOWNSHIP
 10
505840.00
 20
1143877.00
  0
VERTEX
  8
VIRTUAL_SEGMENT_TOWNSHIP
 10
505836.00
 20
1143856.00
  0
VERTEX
  8
VIRTUAL_SEGMENT_TOWNSHIP
 10
505827.00
 20
1143827.00
  0
VERTEX
  8
VIRTUAL_SEGMENT_TOWNSHIP
 10
505825.00
 20
1143817.00
  0
SEQEND
  8
VIRTUAL_SEGMENT_TOWNSHIP
  0
POLYLINE
  8
BDRY_TWP
 66
     1
 62
     4
  6
CONTINUOUS
  0
VERTEX
  8
BDRY_TWP
 10
505129.00
 20
1143817.00
  0
VERTEX
  8
BDRY_TWP
 10
505242.00
 20
1143813.00
  0
SEQEND
  8
BDRY_TWP
  0
POLYLINE
  8
BDRY_TWP
 66
     1
 62
     4
  6
CONTINUOUS
  0
VERTEX
  8
BDRY_TWP
 10
505918.00
 20
1143813.00
  0
VERTEX
  8
BDRY_TWP
 10
505944.00
 20
1143816.00
  0
SEQEND
  8
BDRY_TWP
  0
POLYLINE
  8
BDRY_TWP_LOT-SURVEYED
 66
     1
 62
     2
  6
DASHDOT2
  0
VERTEX
  8
BDRY_TWP_LOT-SURVEYED
 10
505921.00
 20
1145435.00
  0
VERTEX
  8
BDRY_TWP_LOT-SURVEYED
 10
505918.00
 20
1143813.00
  0
SEQEND
  8
BDRY_TWP_LOT-SURVEYED
  0
POLYLINE
  8
BDRY_TWP
 66
     1
 62
     4
  6
CONTINUOUS
  0
VERTEX
  8
BDRY_TWP
 10
505825.00
 20
1143817.00
  0
VERTEX
  8
BDRY_TWP
 10
505918.00
 20
1143813.00
  0
SEQEND
  8
BDRY_TWP
  0
POLYLINE
  8
BDRY_TWP_LOT_UNSURVEYED
 66
     1
 62
     2
  6
DIVIDE
  0
VERTEX
  8
BDRY_TWP_LOT_UNSURVEYED
 10
506722.75
 20
1143849.88
  0
VERTEX
  8
BDRY_TWP_LOT_UNSURVEYED
 10
506723.00
 20
1143812.00
  0
SEQEND
  8
BDRY_TWP_LOT_UNSURVEYED
  0
POLYLINE
  8
BDRY_TWP
 66
     1
 62
     4
  6
CONTINUOUS
  0
VERTEX
  8
BDRY_TWP
 10
505944.00
 20
1143816.00
  0
VERTEX
  8
BDRY_TWP
 10
506723.00
 20
1143812.00
  0
SEQEND
  8
BDRY_TWP
  0
POLYLINE
  8
BDRY_TWP
 66
     1
 62
     4
  6
CONTINUOUS
  0
VERTEX
  8
BDRY_TWP
 10
506723.00
 20
1143812.00
  0
VERTEX
  8
BDRY_TWP
 10
506781.00
 20
1143811.00
  0
SEQEND
  8
BDRY_TWP
  0
POLYLINE
  8
BDRY_TWP_LOT-SURVEYED
 66
     1
 62
     2
  6
DASHDOT2
  0
VERTEX
  8
BDRY_TWP_LOT-SURVEYED
 10
507491.00
 20
1145220.00
  0
VERTEX
  8
BDRY_TWP_LOT-SURVEYED
 10
507509.00
 20
1143809.00
  0
SEQEND
  8
BDRY_TWP_LOT-SURVEYED
  0
POLYLINE
  8
BDRY_TWP
 66
     1
 62
     4
  6
CONTINUOUS
  0
VERTEX
  8
BDRY_TWP
 10
506781.00
 20
1143811.00
  0
VERTEX
  8
BDRY_TWP
 10
507509.00
 20
1143809.00
  0
SEQEND
  8
BDRY_TWP
  0
POLYLINE
  8
BDRY_TWP
 66
     1
 62
     4
  6
CONTINUOUS
  0
VERTEX
  8
BDRY_TWP
 10
507509.00
 20
1143809.00
  0
VERTEX
  8
BDRY_TWP
 10
507530.00
 20
1143807.00
  0
SEQEND
  8
BDRY_TWP
  0
POLYLINE
  8
BDRY_TWP_LOT-SURVEYED
 66
     1
 62
     2
  6
DASHDOT2
  0
VERTEX
  8
BDRY_TWP_LOT-SURVEYED
 10
502700.00
 20
1144090.00
  0
VERTEX
  8
BDRY_TWP_LOT-SURVEYED
 10
502700.00
 20
1144070.00
  0
VERTEX
  8
BDRY_TWP_LOT-SURVEYED
 10
502701.00
 20
1143806.00
  0
SEQEND
  8
BDRY_TWP_LOT-SURVEYED
  0
POLYLINE
  8
BDRY_TWP
 66
     1
 62
     4
  6
CONTINUOUS
  0
VERTEX
  8
BDRY_TWP
 10
508322.00
 20
1143806.00
  0
VERTEX
  8
BDRY_TWP
 10
508382.00
 20
1143807.00
  0
SEQEND
  8
BDRY_TWP
  0
POLYLINE
  8
BDRY_TWP_LOT_UNSURVEYED
 66
     1
 62
     2
  6
DIVIDE
  0
VERTEX
  8
BDRY_TWP_LOT_UNSURVEYED
 10
508324.00
 20
1145420.00
  0
VERTEX
  8
BDRY_TWP_LOT_UNSURVEYED
 10
508322.00
 20
1143806.00
  0
SEQEND
  8
BDRY_TWP_LOT_UNSURVEYED
  0
POLYLINE
  8
BDRY_TWP
 66
     1
 62
     4
  6
CONTINUOUS
  0
VERTEX
  8
BDRY_TWP
 10
507530.00
 20
1143807.00
  0
VERTEX
  8
BDRY_TWP
 10
508322.00
 20
1143806.00
  0
SEQEND
  8
BDRY_TWP
  0
POLYLINE
  8
BDRY_TWP
 66
     1
 62
     4
  6
CONTINUOUS
  0
VERTEX
  8
BDRY_TWP
 10
502290.00
 20
1143803.00
  0
VERTEX
  8
BDRY_TWP
 10
502701.00
 20
1143806.00
  0
SEQEND
  8
BDRY_TWP
  0
POLYLINE
  8
BDRY_TWP
 66
     1
 62
     4
  6
CONTINUOUS
  0
VERTEX
  8
BDRY_TWP
 10
501914.00
 20
1143802.00
  0
VERTEX
  8
BDRY_TWP
 10
502290.00
 20
1143803.00
  0
SEQEND
  8
BDRY_TWP
  0
POLYLINE
  8
BDRY_TWP_LOT_UNSURVEYED
 66
     1
 62
     2
  6
DIVIDE
  0
VERTEX
  8
BDRY_TWP_LOT_UNSURVEYED
 10
501913.78
 20
1144141.13
  0
VERTEX
  8
BDRY_TWP_LOT_UNSURVEYED
 10
501914.00
 20
1143802.00
  0
SEQEND
  8
BDRY_TWP_LOT_UNSURVEYED
  0
POLYLINE
  8
BDRY_TWP_LOT-SURVEYED
 66
     1
 62
     2
  6
DASHDOT2
  0
VERTEX
  8
BDRY_TWP_LOT-SURVEYED
 10
509123.00
 20
1144197.00
  0
VERTEX
  8
BDRY_TWP_LOT-SURVEYED
 10
509125.00
 20
1143802.00
  0
SEQEND
  8
BDRY_TWP_LOT-SURVEYED
  0
POLYLINE
  8
BDRY_TWP_LOT-SURVEYED
 66
     1
 62
     2
  6
DASHDOT2
  0
VERTEX
  8
BDRY_TWP_LOT-SURVEYED
 10
501122.00
 20
1144225.00
  0
VERTEX
  8
BDRY_TWP_LOT-SURVEYED
 10
501122.00
 20
1144221.00
  0
VERTEX
  8
BDRY_TWP_LOT-SURVEYED
 10
501130.00
 20
1143800.00
  0
SEQEND
  8
BDRY_TWP_LOT-SURVEYED
  0
POLYLINE
  8
BDRY_TWP
 66
     1
 62
     4
  6
CONTINUOUS
  0
VERTEX
  8
BDRY_TWP
 10
501493.00
 20
1143800.00
  0
VERTEX
  8
BDRY_TWP
 10
501914.00
 20
1143802.00
  0
SEQEND
  8
BDRY_TWP
  0
POLYLINE
  8
BDRY_TWP
 66
     1
 62
     4
  6
CONTINUOUS
  0
VERTEX
  8
BDRY_TWP
 10
501130.00
 20
1143800.00
  0
VERTEX
  8
BDRY_TWP
 10
501493.00
 20
1143800.00
  0
SEQEND
  8
BDRY_TWP
  0
POLYLINE
  8
BDRY_TWP
 66
     1
 62
     4
  6
CONTINUOUS
  0
VERTEX
  8
BDRY_TWP
 10
509125.00
 20
1143802.00
  0
VERTEX
  8
BDRY_TWP
 10
509152.00
 20
1143800.00
  0
SEQEND
  8
BDRY_TWP
  0
POLYLINE
  8
BDRY_TWP
 66
     1
 62
     4
  6
CONTINUOUS
  0
VERTEX
  8
BDRY_TWP
 10
508654.00
 20
1143799.00
  0
VERTEX
  8
BDRY_TWP
 10
509125.00
 20
1143802.00
  0
SEQEND
  8
BDRY_TWP
  0
POLYLINE
  8
VIRTUAL_SEGMENT_TOWNSHIP
 66
     1
 62
    14
  6
CONTINUOUS
  0
VERTEX
  8
VIRTUAL_SEGMENT_TOWNSHIP
 10
508382.00
 20
1143807.00
  0
VERTEX
  8
VIRTUAL_SEGMENT_TOWNSHIP
 10
508654.00
 20
1143799.00
  0
SEQEND
  8
VIRTUAL_SEGMENT_TOWNSHIP
  0
POLYLINE
  8
BDRY_TWP_LOT_UNSURVEYED
 66
     1
 62
     2
  6
DIVIDE
  0
VERTEX
  8
BDRY_TWP_LOT_UNSURVEYED
 10
509916.00
 20
1145402.00
  0
VERTEX
  8
BDRY_TWP_LOT_UNSURVEYED
 10
509923.00
 20
1143798.00
  0
SEQEND
  8
BDRY_TWP_LOT_UNSURVEYED
  0
POLYLINE
  8
BDRY_TWP
 66
     1
 62
     4
  6
CONTINUOUS
  0
VERTEX
  8
BDRY_TWP
 10
509152.00
 20
1143800.00
  0
VERTEX
  8
BDRY_TWP
 10
509663.00
 20
1143797.00
  0
SEQEND
  8
BDRY_TWP
  0
POLYLINE
  8
BDRY_TWP
 66
     1
 62
     4
  6
CONTINUOUS
  0
VERTEX
  8
BDRY_TWP
 10
509923.00
 20
1143798.00
  0
VERTEX
  8
BDRY_TWP
 10
510000.00
 20
1143797.00
  0
SEQEND
  8
BDRY_TWP
  0
POLYLINE
  8
BDRY_TWP
 66
     1
 62
     4
  6
CONTINUOUS
  0
VERTEX
  8
BDRY_TWP
 10
509807.00
 20
1143795.00
  0
VERTEX
  8
BDRY_TWP
 10
509923.00
 20
1143798.00
  0
SEQEND
  8
BDRY_TWP
  0
POLYLINE
  8
VIRTUAL_SEGMENT_TOWNSHIP
 66
     1
 62
    14
  6
CONTINUOUS
  0
VERTEX
  8
VIRTUAL_SEGMENT_TOWNSHIP
 10
509663.00
 20
1143797.00
  0
VERTEX
  8
VIRTUAL_SEGMENT_TOWNSHIP
 10
509807.00
 20
1143795.00
  0
SEQEND
  8
VIRTUAL_SEGMENT_TOWNSHIP
  0
POLYLINE
  8
BDRY_TWP
 66
     1
 62
     4
  6
CONTINUOUS
  0
VERTEX
  8
BDRY_TWP
 10
500290.00
 20
1143794.00
  0
VERTEX
  8
BDRY_TWP
 10
500694.00
 20
1143796.00
  0
SEQEND
  8
BDRY_TWP
  0
POLYLINE
  8
BDRY_TWP_LOT_UNSURVEYED
 66
     1
 62
     2
  6
DIVIDE
  0
VERTEX
  8
BDRY_TWP_LOT_UNSURVEYED
 10
500287.00
 20
1144150.00
  0
VERTEX
  8
BDRY_TWP_LOT_UNSURVEYED
 10
500287.00
 20
1144107.00
  0
VERTEX
  8
BDRY_TWP_LOT_UNSURVEYED
 10
500290.00
 20
1143794.00
  0
SEQEND
  8
BDRY_TWP_LOT_UNSURVEYED
  0
POLYLINE
  8
BDRY_TWP
 66
     1
 62
     4
  6
CONTINUOUS
  0
VERTEX
  8
BDRY_TWP
 10
500000.00
 20
1143795.00
  0
VERTEX
  8
BDRY_TWP
 10
500290.00
 20
1143794.00
  0
SEQEND
  8
BDRY_TWP
  0
POLYLINE
  8
VIRTUAL_SEGMENT_TOWNSHIP
 66
     1
 62
    14
  6
CONTINUOUS
  0
VERTEX
  8
VIRTUAL_SEGMENT_TOWNSHIP
 10
504321.00
 20
1143821.00
  0
VERTEX
  8
VIRTUAL_SEGMENT_TOWNSHIP
 10
504324.00
 20
1143815.00
  0
VERTEX
  8
VIRTUAL_SEGMENT_TOWNSHIP
 10
504330.00
 20
1143803.00
  0
VERTEX
  8
VIRTUAL_SEGMENT_TOWNSHIP
 10
504333.00
 20
1143792.00
  0
VERTEX
  8
VIRTUAL_SEGMENT_TOWNSHIP
 10
504329.00
 20
1143783.00
  0
VERTEX
  8
VIRTUAL_SEGMENT_TOWNSHIP
 10
504318.00
 20
1143781.00
  0
VERTEX
  8
VIRTUAL_SEGMENT_TOWNSHIP
 10
504314.00
 20
1143777.00
  0
SEQEND
  8
VIRTUAL_SEGMENT_TOWNSHIP
  0
POLYLINE
  8
VIRTUAL_SEGMENT_LOT
 66
     1
 62
    14
  6
CONTINUOUS
  0
VERTEX
  8
VIRTUAL_SEGMENT_LOT
 10
508654.00
 20
1143799.00
  0
VERTEX
  8
VIRTUAL_SEGMENT_LOT
 10
508631.00
 20
1143787.00
  0
VERTEX
  8
VIRTUAL_SEGMENT_LOT
 10
508615.00
 20
1143780.00
  0
VERTEX
  8
VIRTUAL_SEGMENT_LOT
 10
508594.00
 20
1143781.00
  0
VERTEX
  8
VIRTUAL_SEGMENT_LOT
 10
508575.00
 20
1143773.00
  0
VERTEX
  8
VIRTUAL_SEGMENT_LOT
 10
508568.00
 20
1143759.00
  0
VERTEX
  8
VIRTUAL_SEGMENT_LOT
 10
508560.00
 20
1143747.00
  0
VERTEX
  8
VIRTUAL_SEGMENT_LOT
 10
508550.00
 20
1143734.00
  0
VERTEX
  8
VIRTUAL_SEGMENT_LOT
 10
508536.00
 20
1143719.00
  0
VERTEX
  8
VIRTUAL_SEGMENT_LOT
 10
508523.00
 20
1143710.00
  0
VERTEX
  8
VIRTUAL_SEGMENT_LOT
 10
508503.00
 20
1143710.00
  0
VERTEX
  8
VIRTUAL_SEGMENT_LOT
 10
508476.00
 20
1143713.00
  0
VERTEX
  8
VIRTUAL_SEGMENT_LOT
 10
508459.00
 20
1143715.00
  0
VERTEX
  8
VIRTUAL_SEGMENT_LOT
 10
508424.00
 20
1143710.00
  0
VERTEX
  8
VIRTUAL_SEGMENT_LOT
 10
508386.00
 20
1143699.00
  0
VERTEX
  8
VIRTUAL_SEGMENT_LOT
 10
508360.00
 20
1143688.00
  0
VERTEX
  8
VIRTUAL_SEGMENT_LOT
 10
508348.00
 20
1143679.00
  0
SEQEND
  8
VIRTUAL_SEGMENT_LOT
  0
POLYLINE
  8
BDRY_TWP
 66
     1
 62
     4
  6
CONTINUOUS
  0
VERTEX
  8
BDRY_TWP
 10
504314.00
 20
1143777.00
  0
VERTEX
  8
BDRY_TWP
 10
504313.00
 20
1143762.00
  0
VERTEX
  8
BDRY_TWP
 10
504309.00
 20
1143671.00
  0
SEQEND
  8
BDRY_TWP
  0
POLYLINE
  8
VIRTUAL_SEGMENT_TOWNSHIP
 66
     1
 62
    14
  6
CONTINUOUS
  0
VERTEX
  8
VIRTUAL_SEGMENT_TOWNSHIP
 10
504309.00
 20
1143671.00
  0
VERTEX
  8
VIRTUAL_SEGMENT_TOWNSHIP
 10
504315.00
 20
1143677.00
  0
VERTEX
  8
VIRTUAL_SEGMENT_TOWNSHIP
 10
504323.00
 20
1143682.00
  0
VERTEX
  8
VIRTUAL_SEGMENT_TOWNSHIP
 10
504333.00
 20
1143685.00
  0
VERTEX
  8
VIRTUAL_SEGMENT_TOWNSHIP
 10
504338.00
 20
1143679.00
  0
VERTEX
  8
VIRTUAL_SEGMENT_TOWNSHIP
 10
504338.00
 20
1143666.00
  0
VERTEX
  8
VIRTUAL_SEGMENT_TOWNSHIP
 10
504331.00
 20
1143655.00
  0
VERTEX
  8
VIRTUAL_SEGMENT_TOWNSHIP
 10
504333.00
 20
1143634.00
  0
VERTEX
  8
VIRTUAL_SEGMENT_TOWNSHIP
 10
504329.00
 20
1143613.00
  0
VERTEX
  8
VIRTUAL_SEGMENT_TOWNSHIP
 10
504321.00
 20
1143592.00
  0
VERTEX
  8
VIRTUAL_SEGMENT_TOWNSHIP
 10
504317.00
 20
1143580.00
  0
VERTEX
  8
VIRTUAL_SEGMENT_TOWNSHIP
 10
504317.00
 20
1143560.00
  0
VERTEX
  8
VIRTUAL_SEGMENT_TOWNSHIP
 10
504310.00
 20
1143541.00
  0
VERTEX
  8
VIRTUAL_SEGMENT_TOWNSHIP
 10
504306.00
 20
1143537.00
  0
SEQEND
  8
VIRTUAL_SEGMENT_TOWNSHIP
  0
POLYLINE
  8
BDRY_TWP
 66
     1
 62
     4
  6
CONTINUOUS
  0
VERTEX
  8
BDRY_TWP
 10
504306.00
 20
1143537.00
  0
VERTEX
  8
BDRY_TWP
 10
504299.00
 20
1143400.00
  0
SEQEND
  8
BDRY_TWP
  0
POLYLINE
  8
VIRTUAL_SEGMENT_TOWNSHIP
 66
     1
 62
    14
  6
CONTINUOUS
  0
VERTEX
  8
VIRTUAL_SEGMENT_TOWNSHIP
 10
505825.00
 20
1143817.00
  0
VERTEX
  8
VIRTUAL_SEGMENT_TOWNSHIP
 10
505820.00
 20
1143793.00
  0
VERTEX
  8
VIRTUAL_SEGMENT_TOWNSHIP
 10
505813.00
 20
1143764.00
  0
VERTEX
  8
VIRTUAL_SEGMENT_TOWNSHIP
 10
505811.00
 20
1143749.00
  0
VERTEX
  8
VIRTUAL_SEGMENT_TOWNSHIP
 10
505802.00
 20
1143735.00
  0
VERTEX
  8
VIRTUAL_SEGMENT_TOWNSHIP
 10
505796.00
 20
1143725.00
  0
VERTEX
  8
VIRTUAL_SEGMENT_TOWNSHIP
 10
505790.00
 20
1143706.00
  0
VERTEX
  8
VIRTUAL_SEGMENT_TOWNSHIP
 10
505790.00
 20
1143688.00
  0
VERTEX
  8
VIRTUAL_SEGMENT_TOWNSHIP
 10
505783.00
 20
1143679.00
  0
VERTEX
  8
VIRTUAL_SEGMENT_TOWNSHIP
 10
505769.00
 20
1143667.00
  0
VERTEX
  8
VIRTUAL_SEGMENT_TOWNSHIP
 10
505756.00
 20
1143646.00
  0
VERTEX
  8
VIRTUAL_SEGMENT_TOWNSHIP
 10
505744.00
 20
1143629.00
  0
VERTEX
  8
VIRTUAL_SEGMENT_TOWNSHIP
 10
505746.00
 20
1143613.00
  0
VERTEX
  8
VIRTUAL_SEGMENT_TOWNSHIP
 10
505738.00
 20
1143594.00
  0
VERTEX
  8
VIRTUAL_SEGMENT_TOWNSHIP
 10
505724.00
 20
1143578.00
  0
VERTEX
  8
VIRTUAL_SEGMENT_TOWNSHIP
 10
505702.00
 20
1143562.00
  0
VERTEX
  8
VIRTUAL_SEGMENT_TOWNSHIP
 10
505679.00
 20
1143544.00
  0
VERTEX
  8
VIRTUAL_SEGMENT_TOWNSHIP
 10
505663.00
 20
1143533.00
  0
VERTEX
  8
VIRTUAL_SEGMENT_TOWNSHIP
 10
505649.00
 20
1143513.00
  0
VERTEX
  8
VIRTUAL_SEGMENT_TOWNSHIP
 10
505636.00
 20
1143492.00
  0
VERTEX
  8
VIRTUAL_SEGMENT_TOWNSHIP
 10
505622.00
 20
1143472.00
  0
VERTEX
  8
VIRTUAL_SEGMENT_TOWNSHIP
 10
505610.00
 20
1143461.00
  0
VERTEX
  8
VIRTUAL_SEGMENT_TOWNSHIP
 10
505596.00
 20
1143449.00
  0
VERTEX
  8
VIRTUAL_SEGMENT_TOWNSHIP
 10
505577.00
 20
1143447.00
  0
VERTEX
  8
VIRTUAL_SEGMENT_TOWNSHIP
 10
505564.00
 20
1143445.00
  0
VERTEX
  8
VIRTUAL_SEGMENT_TOWNSHIP
 10
505557.00
 20
1143427.00
  0
VERTEX
  8
VIRTUAL_SEGMENT_TOWNSHIP
 10
505547.00
 20
1143407.00
  0
VERTEX
  8
VIRTUAL_SEGMENT_TOWNSHIP
 10
505532.00
 20
1143385.00
  0
VERTEX
  8
VIRTUAL_SEGMENT_TOWNSHIP
 10
505519.00
 20
1143372.00
  0
VERTEX
  8
VIRTUAL_SEGMENT_TOWNSHIP
 10
505497.00
 20
1143362.00
  0
VERTEX
  8
VIRTUAL_SEGMENT_TOWNSHIP
 10
505487.00
 20
1143367.00
  0
VERTEX
  8
VIRTUAL_SEGMENT_TOWNSHIP
 10
505474.00
 20
1143365.00
  0
VERTEX
  8
VIRTUAL_SEGMENT_TOWNSHIP
 10
505462.00
 20
1143354.00
  0
VERTEX
  8
VIRTUAL_SEGMENT_TOWNSHIP
 10
505454.00
 20
1143348.00
  0
VERTEX
  8
VIRTUAL_SEGMENT_TOWNSHIP
 10
505443.00
 20
1143341.00
  0
VERTEX
  8
VIRTUAL_SEGMENT_TOWNSHIP
 10
505421.00
 20
1143341.00
  0
VERTEX
  8
VIRTUAL_SEGMENT_TOWNSHIP
 10
505391.00
 20
1143342.00
  0
VERTEX
  8
VIRTUAL_SEGMENT_TOWNSHIP
 10
505365.00
 20
1143341.00
  0
VERTEX
  8
VIRTUAL_SEGMENT_TOWNSHIP
 10
505355.00
 20
1143345.00
  0
VERTEX
  8
VIRTUAL_SEGMENT_TOWNSHIP
 10
505339.00
 20
1143365.00
  0
VERTEX
  8
VIRTUAL_SEGMENT_TOWNSHIP
 10
505327.00
 20
1143388.00
  0
VERTEX
  8
VIRTUAL_SEGMENT_TOWNSHIP
 10
505317.00
 20
1143409.00
  0
VERTEX
  8
VIRTUAL_SEGMENT_TOWNSHIP
 10
505319.00
 20
1143419.00
  0
VERTEX
  8
VIRTUAL_SEGMENT_TOWNSHIP
 10
505328.00
 20
1143432.00
  0
VERTEX
  8
VIRTUAL_SEGMENT_TOWNSHIP
 10
505334.00
 20
1143448.00
  0
VERTEX
  8
VIRTUAL_SEGMENT_TOWNSHIP
 10
505335.00
 20
1143469.00
  0
VERTEX
  8
VIRTUAL_SEGMENT_TOWNSHIP
 10
505330.00
 20
1143487.00
  0
VERTEX
  8
VIRTUAL_SEGMENT_TOWNSHIP
 10
505320.00
 20
1143487.00
  0
VERTEX
  8
VIRTUAL_SEGMENT_TOWNSHIP
 10
505303.00
 20
1143474.00
  0
VERTEX
  8
VIRTUAL_SEGMENT_TOWNSHIP
 10
505294.00
 20
1143459.00
  0
VERTEX
  8
VIRTUAL_SEGMENT_TOWNSHIP
 10
505278.00
 20
1143447.00
  0
VERTEX
  8
VIRTUAL_SEGMENT_TOWNSHIP
 10
505268.00
 20
1143438.00
  0
VERTEX
  8
VIRTUAL_SEGMENT_TOWNSHIP
 10
505256.00
 20
1143432.00
  0
VERTEX
  8
VIRTUAL_SEGMENT_TOWNSHIP
 10
505242.00
 20
1143435.00
  0
VERTEX
  8
VIRTUAL_SEGMENT_TOWNSHIP
 10
505233.00
 20
1143448.00
  0
VERTEX
  8
VIRTUAL_SEGMENT_TOWNSHIP
 10
505240.00
 20
1143460.00
  0
VERTEX
  8
VIRTUAL_SEGMENT_TOWNSHIP
 10
505242.00
 20
1143476.00
  0
VERTEX
  8
VIRTUAL_SEGMENT_TOWNSHIP
 10
505238.00
 20
1143518.00
  0
VERTEX
  8
VIRTUAL_SEGMENT_TOWNSHIP
 10
505224.00
 20
1143596.00
  0
VERTEX
  8
VIRTUAL_SEGMENT_TOWNSHIP
 10
505225.00
 20
1143624.00
  0
VERTEX
  8
VIRTUAL_SEGMENT_TOWNSHIP
 10
505226.00
 20
1143636.00
  0
VERTEX
  8
VIRTUAL_SEGMENT_TOWNSHIP
 10
505228.00
 20
1143661.00
  0
VERTEX
  8
VIRTUAL_SEGMENT_TOWNSHIP
 10
505228.00
 20
1143701.00
  0
VERTEX
  8
VIRTUAL_SEGMENT_TOWNSHIP
 10
505229.00
 20
1143741.00
  0
VERTEX
  8
VIRTUAL_SEGMENT_TOWNSHIP
 10
505231.00
 20
1143760.00
  0
VERTEX
  8
VIRTUAL_SEGMENT_TOWNSHIP
 10
505232.00
 20
1143776.00
  0
VERTEX
  8
VIRTUAL_SEGMENT_TOWNSHIP
 10
505236.00
 20
1143806.00
  0
VERTEX
  8
VIRTUAL_SEGMENT_TOWNSHIP
 10
505242.00
 20
1143813.00
  0
SEQEND
  8
VIRTUAL_SEGMENT_TOWNSHIP
  0
POLYLINE
  8
VIRTUAL_SEGMENT_LOT
 66
     1
 62
    14
  6
CONTINUOUS
  0
VERTEX
  8
VIRTUAL_SEGMENT_LOT
 10
507530.00
 20
1143266.00
  0
VERTEX
  8
VIRTUAL_SEGMENT_LOT
 10
507543.00
 20
1143271.00
  0
VERTEX
  8
VIRTUAL_SEGMENT_LOT
 10
507565.00
 20
1143277.00
  0
VERTEX
  8
VIRTUAL_SEGMENT_LOT
 10
507593.00
 20
1143276.00
  0
VERTEX
  8
VIRTUAL_SEGMENT_LOT
 10
507612.00
 20
1143276.00
  0
VERTEX
  8
VIRTUAL_SEGMENT_LOT
 10
507629.00
 20
1143284.00
  0
VERTEX
  8
VIRTUAL_SEGMENT_LOT
 10
507644.00
 20
1143294.00
  0
VERTEX
  8
VIRTUAL_SEGMENT_LOT
 10
507651.00
 20
1143306.00
  0
VERTEX
  8
VIRTUAL_SEGMENT_LOT
 10
507660.00
 20
1143328.00
  0
VERTEX
  8
VIRTUAL_SEGMENT_LOT
 10
507667.00
 20
1143347.00
  0
VERTEX
  8
VIRTUAL_SEGMENT_LOT
 10
507676.00
 20
1143367.00
  0
VERTEX
  8
VIRTUAL_SEGMENT_LOT
 10
507693.00
 20
1143378.00
  0
VERTEX
  8
VIRTUAL_SEGMENT_LOT
 10
507730.00
 20
1143398.00
  0
VERTEX
  8
VIRTUAL_SEGMENT_LOT
 10
507757.00
 20
1143412.00
  0
VERTEX
  8
VIRTUAL_SEGMENT_LOT
 10
507775.00
 20
1143428.00
  0
VERTEX
  8
VIRTUAL_SEGMENT_LOT
 10
507792.00
 20
1143450.00
  0
VERTEX
  8
VIRTUAL_SEGMENT_LOT
 10
507808.00
 20
1143472.00
  0
VERTEX
  8
VIRTUAL_SEGMENT_LOT
 10
507826.00
 20
1143484.00
  0
VERTEX
  8
VIRTUAL_SEGMENT_LOT
 10
507849.00
 20
1143492.00
  0
VERTEX
  8
VIRTUAL_SEGMENT_LOT
 10
507873.00
 20
1143499.00
  0
VERTEX
  8
VIRTUAL_SEGMENT_LOT
 10
507888.00
 20
1143506.00
  0
VERTEX
  8
VIRTUAL_SEGMENT_LOT
 10
507898.00
 20
1143512.00
  0
VERTEX
  8
VIRTUAL_SEGMENT_LOT
 10
507896.00
 20
1143518.00
  0
VERTEX
  8
VIRTUAL_SEGMENT_LOT
 10
507884.00
 20
1143520.00
  0
VERTEX
  8
VIRTUAL_SEGMENT_LOT
 10
507880.00
 20
1143524.00
  0
VERTEX
  8
VIRTUAL_SEGMENT_LOT
 10
507885.00
 20
1143544.00
  0
VERTEX
  8
VIRTUAL_SEGMENT_LOT
 10
507898.00
 20
1143558.00
  0
VERTEX
  8
VIRTUAL_SEGMENT_LOT
 10
507918.00
 20
1143566.00
  0
VERTEX
  8
VIRTUAL_SEGMENT_LOT
 10
507946.00
 20
1143573.00
  0
VERTEX
  8
VIRTUAL_SEGMENT_LOT
 10
507974.00
 20
1143582.00
  0
VERTEX
  8
VIRTUAL_SEGMENT_LOT
 10
507988.00
 20
1143591.00
  0
VERTEX
  8
VIRTUAL_SEGMENT_LOT
 10
508003.00
 20
1143606.00
  0
VERTEX
  8
VIRTUAL_SEGMENT_LOT
 10
508040.00
 20
1143640.00
  0
VERTEX
  8
VIRTUAL_SEGMENT_LOT
 10
508070.00
 20
1143670.00
  0
VERTEX
  8
VIRTUAL_SEGMENT_LOT
 10
508096.00
 20
1143699.00
  0
VERTEX
  8
VIRTUAL_SEGMENT_LOT
 10
508112.00
 20
1143715.00
  0
VERTEX
  8
VIRTUAL_SEGMENT_LOT
 10
508121.00
 20
1143729.00
  0
VERTEX
  8
VIRTUAL_SEGMENT_LOT
 10
508133.00
 20
1143734.00
  0
VERTEX
  8
VIRTUAL_SEGMENT_LOT
 10
508154.00
 20
1143735.00
  0
VERTEX
  8
VIRTUAL_SEGMENT_LOT
 10
508186.00
 20
1143740.00
  0
VERTEX
  8
VIRTUAL_SEGMENT_LOT
 10
508223.00
 20
1143746.00
  0
VERTEX
  8
VIRTUAL_SEGMENT_LOT
 10
508259.00
 20
1143755.00
  0
VERTEX
  8
VIRTUAL_SEGMENT_LOT
 10
508287.00
 20
1143761.00
  0
VERTEX
  8
VIRTUAL_SEGMENT_LOT
 10
508324.00
 20
1143767.00
  0
VERTEX
  8
VIRTUAL_SEGMENT_LOT
 10
508363.00
 20
1143795.00
  0
VERTEX
  8
VIRTUAL_SEGMENT_LOT
 10
508382.00
 20
1143807.00
  0
SEQEND
  8
VIRTUAL_SEGMENT_LOT
  0
POLYLINE
  8
BDRY_TWP_LOT-SURVEYED
 66
     1
 62
     2
  6
DASHDOT2
  0
VERTEX
  8
BDRY_TWP_LOT-SURVEYED
 10
507530.00
 20
1143807.00
  0
VERTEX
  8
BDRY_TWP_LOT-SURVEYED
 10
507530.00
 20
1143266.00
  0
SEQEND
  8
BDRY_TWP_LOT-SURVEYED
  0
POLYLINE
  8
VIRTUAL_SEGMENT_TOWNSHIP
 66
     1
 62
    14
  6
CONTINUOUS
  0
VERTEX
  8
VIRTUAL_SEGMENT_TOWNSHIP
 10
504299.00
 20
1143400.00
  0
VERTEX
  8
VIRTUAL_SEGMENT_TOWNSHIP
 10
504306.00
 20
1143390.00
  0
VERTEX
  8
VIRTUAL_SEGMENT_TOWNSHIP
 10
504323.00
 20
1143394.00
  0
VERTEX
  8
VIRTUAL_SEGMENT_TOWNSHIP
 10
504339.00
 20
1143398.00
  0
VERTEX
  8
VIRTUAL_SEGMENT_TOWNSHIP
 10
504347.00
 20
1143413.00
  0
VERTEX
  8
VIRTUAL_SEGMENT_TOWNSHIP
 10
504350.00
 20
1143431.00
  0
VERTEX
  8
VIRTUAL_SEGMENT_TOWNSHIP
 10
504342.00
 20
1143444.00
  0
VERTEX
  8
VIRTUAL_SEGMENT_TOWNSHIP
 10
504343.00
 20
1143451.00
  0
VERTEX
  8
VIRTUAL_SEGMENT_TOWNSHIP
 10
504353.00
 20
1143458.00
  0
VERTEX
  8
VIRTUAL_SEGMENT_TOWNSHIP
 10
504361.00
 20
1143460.00
  0
VERTEX
  8
VIRTUAL_SEGMENT_TOWNSHIP
 10
504376.00
 20
1143455.00
  0
VERTEX
  8
VIRTUAL_SEGMENT_TOWNSHIP
 10
504383.00
 20
1143450.00
  0
VERTEX
  8
VIRTUAL_SEGMENT_TOWNSHIP
 10
504403.00
 20
1143459.00
  0
VERTEX
  8
VIRTUAL_SEGMENT_TOWNSHIP
 10
504408.00
 20
1143455.00
  0
VERTEX
  8
VIRTUAL_SEGMENT_TOWNSHIP
 10
504408.00
 20
1143438.00
  0
VERTEX
  8
VIRTUAL_SEGMENT_TOWNSHIP
 10
504417.00
 20
1143433.00
  0
VERTEX
  8
VIRTUAL_SEGMENT_TOWNSHIP
 10
504427.00
 20
1143436.00
  0
VERTEX
  8
VIRTUAL_SEGMENT_TOWNSHIP
 10
504432.00
 20
1143451.00
  0
VERTEX
  8
VIRTUAL_SEGMENT_TOWNSHIP
 10
504430.00
 20
1143473.00
  0
VERTEX
  8
VIRTUAL_SEGMENT_TOWNSHIP
 10
504440.00
 20
1143481.00
  0
VERTEX
  8
VIRTUAL_SEGMENT_TOWNSHIP
 10
504451.00
 20
1143472.00
  0
VERTEX
  8
VIRTUAL_SEGMENT_TOWNSHIP
 10
504459.00
 20
1143470.00
  0
VERTEX
  8
VIRTUAL_SEGMENT_TOWNSHIP
 10
504470.00
 20
1143480.00
  0
VERTEX
  8
VIRTUAL_SEGMENT_TOWNSHIP
 10
504481.00
 20
1143499.00
  0
VERTEX
  8
VIRTUAL_SEGMENT_TOWNSHIP
 10
504483.00
 20
1143520.00
  0
VERTEX
  8
VIRTUAL_SEGMENT_TOWNSHIP
 10
504482.00
 20
1143542.00
  0
VERTEX
  8
VIRTUAL_SEGMENT_TOWNSHIP
 10
504474.00
 20
1143567.00
  0
VERTEX
  8
VIRTUAL_SEGMENT_TOWNSHIP
 10
504472.00
 20
1143578.00
  0
VERTEX
  8
VIRTUAL_SEGMENT_TOWNSHIP
 10
504485.00
 20
1143611.00
  0
VERTEX
  8
VIRTUAL_SEGMENT_TOWNSHIP
 10
504505.00
 20
1143636.00
  0
VERTEX
  8
VIRTUAL_SEGMENT_TOWNSHIP
 10
504517.00
 20
1143631.00
  0
VERTEX
  8
VIRTUAL_SEGMENT_TOWNSHIP
 10
504522.00
 20
1143622.00
  0
VERTEX
  8
VIRTUAL_SEGMENT_TOWNSHIP
 10
504516.00
 20
1143601.00
  0
VERTEX
  8
VIRTUAL_SEGMENT_TOWNSHIP
 10
504510.00
 20
1143584.00
  0
VERTEX
  8
VIRTUAL_SEGMENT_TOWNSHIP
 10
504511.00
 20
1143561.00
  0
VERTEX
  8
VIRTUAL_SEGMENT_TOWNSHIP
 10
504517.00
 20
1143542.00
  0
VERTEX
  8
VIRTUAL_SEGMENT_TOWNSHIP
 10
504527.00
 20
1143536.00
  0
VERTEX
  8
VIRTUAL_SEGMENT_TOWNSHIP
 10
504536.00
 20
1143545.00
  0
VERTEX
  8
VIRTUAL_SEGMENT_TOWNSHIP
 10
504545.00
 20
1143550.00
  0
VERTEX
  8
VIRTUAL_SEGMENT_TOWNSHIP
 10
504553.00
 20
1143551.00
  0
VERTEX
  8
VIRTUAL_SEGMENT_TOWNSHIP
 10
504562.00
 20
1143540.00
  0
VERTEX
  8
VIRTUAL_SEGMENT_TOWNSHIP
 10
504571.00
 20
1143534.00
  0
VERTEX
  8
VIRTUAL_SEGMENT_TOWNSHIP
 10
504579.00
 20
1143540.00
  0
VERTEX
  8
VIRTUAL_SEGMENT_TOWNSHIP
 10
504583.00
 20
1143554.00
  0
VERTEX
  8
VIRTUAL_SEGMENT_TOWNSHIP
 10
504582.00
 20
1143564.00
  0
VERTEX
  8
VIRTUAL_SEGMENT_TOWNSHIP
 10
504581.00
 20
1143576.00
  0
VERTEX
  8
VIRTUAL_SEGMENT_TOWNSHIP
 10
504588.00
 20
1143580.00
  0
VERTEX
  8
VIRTUAL_SEGMENT_TOWNSHIP
 10
504601.00
 20
1143581.00
  0
VERTEX
  8
VIRTUAL_SEGMENT_TOWNSHIP
 10
504610.00
 20
1143587.00
  0
VERTEX
  8
VIRTUAL_SEGMENT_TOWNSHIP
 10
504620.00
 20
1143608.00
  0
VERTEX
  8
VIRTUAL_SEGMENT_TOWNSHIP
 10
504626.00
 20
1143625.00
  0
VERTEX
  8
VIRTUAL_SEGMENT_TOWNSHIP
 10
504626.00
 20
1143640.00
  0
VERTEX
  8
VIRTUAL_SEGMENT_TOWNSHIP
 10
504628.00
 20
1143652.00
  0
VERTEX
  8
VIRTUAL_SEGMENT_TOWNSHIP
 10
504637.00
 20
1143665.00
  0
VERTEX
  8
VIRTUAL_SEGMENT_TOWNSHIP
 10
504650.00
 20
1143675.00
  0
VERTEX
  8
VIRTUAL_SEGMENT_TOWNSHIP
 10
504664.00
 20
1143680.00
  0
VERTEX
  8
VIRTUAL_SEGMENT_TOWNSHIP
 10
504682.00
 20
1143683.00
  0
VERTEX
  8
VIRTUAL_SEGMENT_TOWNSHIP
 10
504700.00
 20
1143688.00
  0
VERTEX
  8
VIRTUAL_SEGMENT_TOWNSHIP
 10
504708.00
 20
1143700.00
  0
VERTEX
  8
VIRTUAL_SEGMENT_TOWNSHIP
 10
504712.00
 20
1143711.00
  0
VERTEX
  8
VIRTUAL_SEGMENT_TOWNSHIP
 10
504722.00
 20
1143716.00
  0
VERTEX
  8
VIRTUAL_SEGMENT_TOWNSHIP
 10
504732.00
 20
1143721.00
  0
VERTEX
  8
VIRTUAL_SEGMENT_TOWNSHIP
 10
504736.00
 20
1143720.00
  0
VERTEX
  8
VIRTUAL_SEGMENT_TOWNSHIP
 10
504749.00
 20
1143714.00
  0
VERTEX
  8
VIRTUAL_SEGMENT_TOWNSHIP
 10
504773.00
 20
1143708.00
  0
VERTEX
  8
VIRTUAL_SEGMENT_TOWNSHIP
 10
504786.00
 20
1143705.00
  0
VERTEX
  8
VIRTUAL_SEGMENT_TOWNSHIP
 10
504795.00
 20
1143698.00
  0
VERTEX
  8
VIRTUAL_SEGMENT_TOWNSHIP
 10
504800.00
 20
1143687.00
  0
VERTEX
  8
VIRTUAL_SEGMENT_TOWNSHIP
 10
504799.00
 20
1143664.00
  0
VERTEX
  8
VIRTUAL_SEGMENT_TOWNSHIP
 10
504797.00
 20
1143637.00
  0
VERTEX
  8
VIRTUAL_SEGMENT_TOWNSHIP
 10
504792.00
 20
1143607.00
  0
VERTEX
  8
VIRTUAL_SEGMENT_TOWNSHIP
 10
504792.00
 20
1143581.00
  0
VERTEX
  8
VIRTUAL_SEGMENT_TOWNSHIP
 10
504798.00
 20
1143556.00
  0
VERTEX
  8
VIRTUAL_SEGMENT_TOWNSHIP
 10
504797.00
 20
1143545.00
  0
VERTEX
  8
VIRTUAL_SEGMENT_TOWNSHIP
 10
504790.00
 20
1143533.00
  0
VERTEX
  8
VIRTUAL_SEGMENT_TOWNSHIP
 10
504773.00
 20
1143524.00
  0
VERTEX
  8
VIRTUAL_SEGMENT_TOWNSHIP
 10
504742.00
 20
1143519.00
  0
VERTEX
  8
VIRTUAL_SEGMENT_TOWNSHIP
 10
504712.00
 20
1143510.00
  0
VERTEX
  8
VIRTUAL_SEGMENT_TOWNSHIP
 10
504686.00
 20
1143499.00
  0
VERTEX
  8
VIRTUAL_SEGMENT_TOWNSHIP
 10
504680.00
 20
1143491.00
  0
VERTEX
  8
VIRTUAL_SEGMENT_TOWNSHIP
 10
504679.00
 20
1143476.00
  0
VERTEX
  8
VIRTUAL_SEGMENT_TOWNSHIP
 10
504673.00
 20
1143464.00
  0
VERTEX
  8
VIRTUAL_SEGMENT_TOWNSHIP
 10
504655.00
 20
1143458.00
  0
VERTEX
  8
VIRTUAL_SEGMENT_TOWNSHIP
 10
504657.00
 20
1143423.00
  0
VERTEX
  8
VIRTUAL_SEGMENT_TOWNSHIP
 10
504661.00
 20
1143418.00
  0
VERTEX
  8
VIRTUAL_SEGMENT_TOWNSHIP
 10
504676.00
 20
1143419.00
  0
VERTEX
  8
VIRTUAL_SEGMENT_TOWNSHIP
 10
504674.00
 20
1143405.00
  0
VERTEX
  8
VIRTUAL_SEGMENT_TOWNSHIP
 10
504668.00
 20
1143382.00
  0
VERTEX
  8
VIRTUAL_SEGMENT_TOWNSHIP
 10
504660.00
 20
1143356.00
  0
VERTEX
  8
VIRTUAL_SEGMENT_TOWNSHIP
 10
504648.00
 20
1143342.00
  0
VERTEX
  8
VIRTUAL_SEGMENT_TOWNSHIP
 10
504647.00
 20
1143322.00
  0
VERTEX
  8
VIRTUAL_SEGMENT_TOWNSHIP
 10
504652.00
 20
1143291.00
  0
VERTEX
  8
VIRTUAL_SEGMENT_TOWNSHIP
 10
504651.00
 20
1143267.00
  0
VERTEX
  8
VIRTUAL_SEGMENT_TOWNSHIP
 10
504649.00
 20
1143245.00
  0
VERTEX
  8
VIRTUAL_SEGMENT_TOWNSHIP
 10
504638.00
 20
1143232.00
  0
VERTEX
  8
VIRTUAL_SEGMENT_TOWNSHIP
 10
504633.00
 20
1143232.00
  0
VERTEX
  8
VIRTUAL_SEGMENT_TOWNSHIP
 10
504624.00
 20
1143252.00
  0
VERTEX
  8
VIRTUAL_SEGMENT_TOWNSHIP
 10
504619.00
 20
1143250.00
  0
VERTEX
  8
VIRTUAL_SEGMENT_TOWNSHIP
 10
504614.00
 20
1143240.00
  0
VERTEX
  8
VIRTUAL_SEGMENT_TOWNSHIP
 10
504619.00
 20
1143221.00
  0
VERTEX
  8
VIRTUAL_SEGMENT_TOWNSHIP
 10
504617.00
 20
1143206.00
  0
VERTEX
  8
VIRTUAL_SEGMENT_TOWNSHIP
 10
504609.00
 20
1143194.00
  0
VERTEX
  8
VIRTUAL_SEGMENT_TOWNSHIP
 10
504590.00
 20
1143184.00
  0
VERTEX
  8
VIRTUAL_SEGMENT_TOWNSHIP
 10
504567.00
 20
1143173.00
  0
VERTEX
  8
VIRTUAL_SEGMENT_TOWNSHIP
 10
504548.00
 20
1143171.00
  0
VERTEX
  8
VIRTUAL_SEGMENT_TOWNSHIP
 10
504544.00
 20
1143177.00
  0
VERTEX
  8
VIRTUAL_SEGMENT_TOWNSHIP
 10
504548.00
 20
1143192.00
  0
VERTEX
  8
VIRTUAL_SEGMENT_TOWNSHIP
 10
504545.00
 20
1143211.00
  0
VERTEX
  8
VIRTUAL_SEGMENT_TOWNSHIP
 10
504533.00
 20
1143229.00
  0
VERTEX
  8
VIRTUAL_SEGMENT_TOWNSHIP
 10
504513.00
 20
1143240.00
  0
VERTEX
  8
VIRTUAL_SEGMENT_TOWNSHIP
 10
504501.00
 20
1143245.00
  0
VERTEX
  8
VIRTUAL_SEGMENT_TOWNSHIP
 10
504497.00
 20
1143251.00
  0
VERTEX
  8
VIRTUAL_SEGMENT_TOWNSHIP
 10
504500.00
 20
1143261.00
  0
VERTEX
  8
VIRTUAL_SEGMENT_TOWNSHIP
 10
504516.00
 20
1143263.00
  0
VERTEX
  8
VIRTUAL_SEGMENT_TOWNSHIP
 10
504528.00
 20
1143268.00
  0
VERTEX
  8
VIRTUAL_SEGMENT_TOWNSHIP
 10
504518.00
 20
1143283.00
  0
VERTEX
  8
VIRTUAL_SEGMENT_TOWNSHIP
 10
504507.00
 20
1143293.00
  0
VERTEX
  8
VIRTUAL_SEGMENT_TOWNSHIP
 10
504496.00
 20
1143299.00
  0
VERTEX
  8
VIRTUAL_SEGMENT_TOWNSHIP
 10
504485.00
 20
1143294.00
  0
VERTEX
  8
VIRTUAL_SEGMENT_TOWNSHIP
 10
504473.00
 20
1143284.00
  0
VERTEX
  8
VIRTUAL_SEGMENT_TOWNSHIP
 10
504463.00
 20
1143272.00
  0
VERTEX
  8
VIRTUAL_SEGMENT_TOWNSHIP
 10
504458.00
 20
1143259.00
  0
VERTEX
  8
VIRTUAL_SEGMENT_TOWNSHIP
 10
504452.00
 20
1143244.00
  0
VERTEX
  8
VIRTUAL_SEGMENT_TOWNSHIP
 10
504457.00
 20
1143223.00
  0
VERTEX
  8
VIRTUAL_SEGMENT_TOWNSHIP
 10
504458.00
 20
1143208.00
  0
VERTEX
  8
VIRTUAL_SEGMENT_TOWNSHIP
 10
504426.00
 20
1143178.00
  0
VERTEX
  8
VIRTUAL_SEGMENT_TOWNSHIP
 10
504407.00
 20
1143160.00
  0
VERTEX
  8
VIRTUAL_SEGMENT_TOWNSHIP
 10
504389.00
 20
1143153.00
  0
VERTEX
  8
VIRTUAL_SEGMENT_TOWNSHIP
 10
504341.00
 20
1143190.00
  0
VERTEX
  8
VIRTUAL_SEGMENT_TOWNSHIP
 10
504335.00
 20
1143207.00
  0
VERTEX
  8
VIRTUAL_SEGMENT_TOWNSHIP
 10
504324.00
 20
1143216.00
  0
VERTEX
  8
VIRTUAL_SEGMENT_TOWNSHIP
 10
504305.00
 20
1143218.00
  0
VERTEX
  8
VIRTUAL_SEGMENT_TOWNSHIP
 10
504293.00
 20
1143218.00
  0
SEQEND
  8
VIRTUAL_SEGMENT_TOWNSHIP
  0
POLYLINE
  8
BDRY_TWP_LOT_UNSURVEYED
 66
     1
 62
     2
  6
DIVIDE
  0
VERTEX
  8
BDRY_TWP_LOT_UNSURVEYED
 10
505129.00
 20
1143817.00
  0
VERTEX
  8
BDRY_TWP_LOT_UNSURVEYED
 10
505118.25
 20
1143133.00
  0
SEQEND
  8
BDRY_TWP_LOT_UNSURVEYED
  0
POLYLINE
  8
BDRY_TWP_LOT-SURVEYED
 66
     1
 62
     2
  6
DASHDOT2
  0
VERTEX
  8
BDRY_TWP_LOT-SURVEYED
 10
502290.00
 20
1143803.00
  0
VERTEX
  8
BDRY_TWP_LOT-SURVEYED
 10
502311.00
 20
1143112.00
  0
SEQEND
  8
BDRY_TWP_LOT-SURVEYED
  0
POLYLINE
  8
BDRY_TWP_LOT_UNSURVEYED
 66
     1
 62
     2
  6
DIVIDE
  0
VERTEX
  8
BDRY_TWP_LOT_UNSURVEYED
 10
502311.00
 20
1143112.00
  0
VERTEX
  8
BDRY_TWP_LOT_UNSURVEYED
 10
502312.00
 20
1143107.00
  0
SEQEND
  8
BDRY_TWP_LOT_UNSURVEYED
  0
POLYLINE
  8
VIRTUAL_SEGMENT_LOT
 66
     1
 62
    14
  6
CONTINUOUS
  0
VERTEX
  8
VIRTUAL_SEGMENT_LOT
 10
507534.00
 20
1143149.00
  0
VERTEX
  8
VIRTUAL_SEGMENT_LOT
 10
507532.00
 20
1143149.00
  0
VERTEX
  8
VIRTUAL_SEGMENT_LOT
 10
507521.00
 20
1143147.00
  0
VERTEX
  8
VIRTUAL_SEGMENT_LOT
 10
507511.00
 20
1143137.00
  0
VERTEX
  8
VIRTUAL_SEGMENT_LOT
 10
507498.00
 20
1143131.00
  0
VERTEX
  8
VIRTUAL_SEGMENT_LOT
 10
507490.00
 20
1143125.00
  0
VERTEX
  8
VIRTUAL_SEGMENT_LOT
 10
507478.00
 20
1143129.00
  0
VERTEX
  8
VIRTUAL_SEGMENT_LOT
 10
507466.00
 20
1143135.00
  0
VERTEX
  8
VIRTUAL_SEGMENT_LOT
 10
507451.00
 20
1143140.00
  0
VERTEX
  8
VIRTUAL_SEGMENT_LOT
 10
507439.00
 20
1143138.00
  0
VERTEX
  8
VIRTUAL_SEGMENT_LOT
 10
507420.00
 20
1143129.00
  0
VERTEX
  8
VIRTUAL_SEGMENT_LOT
 10
507402.00
 20
1143122.00
  0
VERTEX
  8
VIRTUAL_SEGMENT_LOT
 10
507378.00
 20
1143115.00
  0
VERTEX
  8
VIRTUAL_SEGMENT_LOT
 10
507359.00
 20
1143110.00
  0
VERTEX
  8
VIRTUAL_SEGMENT_LOT
 10
507341.00
 20
1143108.00
  0
VERTEX
  8
VIRTUAL_SEGMENT_LOT
 10
507326.00
 20
1143104.00
  0
VERTEX
  8
VIRTUAL_SEGMENT_LOT
 10
507323.00
 20
1143115.00
  0
VERTEX
  8
VIRTUAL_SEGMENT_LOT
 10
507325.00
 20
1143130.00
  0
VERTEX
  8
VIRTUAL_SEGMENT_LOT
 10
507335.00
 20
1143144.00
  0
VERTEX
  8
VIRTUAL_SEGMENT_LOT
 10
507350.00
 20
1143163.00
  0
VERTEX
  8
VIRTUAL_SEGMENT_LOT
 10
507377.00
 20
1143174.00
  0
VERTEX
  8
VIRTUAL_SEGMENT_LOT
 10
507404.00
 20
1143186.00
  0
VERTEX
  8
VIRTUAL_SEGMENT_LOT
 10
507414.00
 20
1143200.00
  0
VERTEX
  8
VIRTUAL_SEGMENT_LOT
 10
507431.00
 20
1143216.00
  0
VERTEX
  8
VIRTUAL_SEGMENT_LOT
 10
507447.00
 20
1143228.00
  0
VERTEX
  8
VIRTUAL_SEGMENT_LOT
 10
507479.00
 20
1143244.00
  0
VERTEX
  8
VIRTUAL_SEGMENT_LOT
 10
507512.00
 20
1143258.00
  0
VERTEX
  8
VIRTUAL_SEGMENT_LOT
 10
507530.00
 20
1143266.00
  0
SEQEND
  8
VIRTUAL_SEGMENT_LOT
  0
POLYLINE
  8
VIRTUAL_SEGMENT_LOT
 66
     1
 62
    14
  6
CONTINUOUS
  0
VERTEX
  8
VIRTUAL_SEGMENT_LOT
 10
505118.25
 20
1143133.00
  0
VERTEX
  8
VIRTUAL_SEGMENT_LOT
 10
505117.16
 20
1143061.50
  0
SEQEND
  8
VIRTUAL_SEGMENT_LOT
  0
POLYLINE
  8
VIRTUAL_SEGMENT_LOT
 66
     1
 62
    14
  6
CONTINUOUS
  0
VERTEX
  8
VIRTUAL_SEGMENT_LOT
 10
507535.00
 20
1143054.00
  0
VERTEX
  8
VIRTUAL_SEGMENT_LOT
 10
507546.00
 20
1143060.00
  0
VERTEX
  8
VIRTUAL_SEGMENT_LOT
 10
507576.00
 20
1143074.00
  0
VERTEX
  8
VIRTUAL_SEGMENT_LOT
 10
507591.00
 20
1143087.00
  0
VERTEX
  8
VIRTUAL_SEGMENT_LOT
 10
507585.00
 20
1143106.00
  0
VERTEX
  8
VIRTUAL_SEGMENT_LOT
 10
507568.00
 20
1143125.00
  0
VERTEX
  8
VIRTUAL_SEGMENT_LOT
 10
507548.00
 20
1143139.00
  0
VERTEX
  8
VIRTUAL_SEGMENT_LOT
 10
507547.00
 20
1143140.00
  0
VERTEX
  8
VIRTUAL_SEGMENT_LOT
 10
507534.00
 20
1143149.00
  0
SEQEND
  8
VIRTUAL_SEGMENT_LOT
  0
POLYLINE
  8
VIRTUAL_SEGMENT_TOWNSHIP
 66
     1
 62
    14
  6
CONTINUOUS
  0
VERTEX
  8
VIRTUAL_SEGMENT_TOWNSHIP
 10
502314.00
 20
1142999.00
  0
VERTEX
  8
VIRTUAL_SEGMENT_TOWNSHIP
 10
502300.00
 20
1143009.00
  0
VERTEX
  8
VIRTUAL_SEGMENT_TOWNSHIP
 10
502295.00
 20
1143023.00
  0
VERTEX
  8
VIRTUAL_SEGMENT_TOWNSHIP
 10
502294.00
 20
1143039.00
  0
VERTEX
  8
VIRTUAL_SEGMENT_TOWNSHIP
 10
502299.00
 20
1143064.00
  0
VERTEX
  8
VIRTUAL_SEGMENT_TOWNSHIP
 10
502309.00
 20
1143092.00
  0
VERTEX
  8
VIRTUAL_SEGMENT_TOWNSHIP
 10
502312.00
 20
1143107.00
  0
SEQEND
  8
VIRTUAL_SEGMENT_TOWNSHIP
  0
POLYLINE
  8
VIRTUAL_SEGMENT_LOT
 66
     1
 62
    14
  6
CONTINUOUS
  0
VERTEX
  8
VIRTUAL_SEGMENT_LOT
 10
508348.00
 20
1143679.00
  0
VERTEX
  8
VIRTUAL_SEGMENT_LOT
 10
508345.00
 20
1143676.00
  0
VERTEX
  8
VIRTUAL_SEGMENT_LOT
 10
508338.00
 20
1143666.00
  0
VERTEX
  8
VIRTUAL_SEGMENT_LOT
 10
508335.00
 20
1143651.00
  0
VERTEX
  8
VIRTUAL_SEGMENT_LOT
 10
508329.00
 20
1143629.00
  0
VERTEX
  8
VIRTUAL_SEGMENT_LOT
 10
508325.00
 20
1143614.00
  0
VERTEX
  8
VIRTUAL_SEGMENT_LOT
 10
508306.00
 20
1143589.00
  0
VERTEX
  8
VIRTUAL_SEGMENT_LOT
 10
508278.00
 20
1143557.00
  0
VERTEX
  8
VIRTUAL_SEGMENT_LOT
 10
508255.00
 20
1143531.00
  0
VERTEX
  8
VIRTUAL_SEGMENT_LOT
 10
508234.00
 20
1143512.00
  0
VERTEX
  8
VIRTUAL_SEGMENT_LOT
 10
508228.00
 20
1143506.00
  0
VERTEX
  8
VIRTUAL_SEGMENT_LOT
 10
508220.00
 20
1143501.00
  0
VERTEX
  8
VIRTUAL_SEGMENT_LOT
 10
508200.00
 20
1143496.00
  0
VERTEX
  8
VIRTUAL_SEGMENT_LOT
 10
508184.00
 20
1143495.00
  0
VERTEX
  8
VIRTUAL_SEGMENT_LOT
 10
508179.00
 20
1143496.00
  0
VERTEX
  8
VIRTUAL_SEGMENT_LOT
 10
508155.00
 20
1143512.00
  0
VERTEX
  8
VIRTUAL_SEGMENT_LOT
 10
508143.00
 20
1143522.00
  0
VERTEX
  8
VIRTUAL_SEGMENT_LOT
 10
508103.00
 20
1143525.00
  0
VERTEX
  8
VIRTUAL_SEGMENT_LOT
 10
508051.00
 20
1143521.00
  0
VERTEX
  8
VIRTUAL_SEGMENT_LOT
 10
508015.00
 20
1143513.00
  0
VERTEX
  8
VIRTUAL_SEGMENT_LOT
 10
507966.00
 20
1143493.00
  0
VERTEX
  8
VIRTUAL_SEGMENT_LOT
 10
507922.00
 20
1143466.00
  0
VERTEX
  8
VIRTUAL_SEGMENT_LOT
 10
507896.00
 20
1143440.00
  0
VERTEX
  8
VIRTUAL_SEGMENT_LOT
 10
507880.00
 20
1143422.00
  0
VERTEX
  8
VIRTUAL_SEGMENT_LOT
 10
507860.00
 20
1143403.00
  0
VERTEX
  8
VIRTUAL_SEGMENT_LOT
 10
507809.00
 20
1143368.00
  0
VERTEX
  8
VIRTUAL_SEGMENT_LOT
 10
507765.00
 20
1143343.00
  0
VERTEX
  8
VIRTUAL_SEGMENT_LOT
 10
507719.00
 20
1143316.00
  0
VERTEX
  8
VIRTUAL_SEGMENT_LOT
 10
507690.00
 20
1143298.00
  0
VERTEX
  8
VIRTUAL_SEGMENT_LOT
 10
507675.00
 20
1143279.00
  0
VERTEX
  8
VIRTUAL_SEGMENT_LOT
 10
507662.00
 20
1143263.00
  0
VERTEX
  8
VIRTUAL_SEGMENT_LOT
 10
507657.00
 20
1143253.00
  0
VERTEX
  8
VIRTUAL_SEGMENT_LOT
 10
507654.00
 20
1143239.00
  0
VERTEX
  8
VIRTUAL_SEGMENT_LOT
 10
507653.00
 20
1143215.00
  0
VERTEX
  8
VIRTUAL_SEGMENT_LOT
 10
507655.00
 20
1143188.00
  0
VERTEX
  8
VIRTUAL_SEGMENT_LOT
 10
507659.00
 20
1143154.00
  0
VERTEX
  8
VIRTUAL_SEGMENT_LOT
 10
507662.00
 20
1143127.00
  0
VERTEX
  8
VIRTUAL_SEGMENT_LOT
 10
507662.00
 20
1143120.00
  0
VERTEX
  8
VIRTUAL_SEGMENT_LOT
 10
507663.00
 20
1143105.00
  0
VERTEX
  8
VIRTUAL_SEGMENT_LOT
 10
507659.00
 20
1143083.00
  0
VERTEX
  8
VIRTUAL_SEGMENT_LOT
 10
507644.00
 20
1143063.00
  0
VERTEX
  8
VIRTUAL_SEGMENT_LOT
 10
507623.00
 20
1143050.00
  0
VERTEX
  8
VIRTUAL_SEGMENT_LOT
 10
507601.00
 20
1143033.00
  0
VERTEX
  8
VIRTUAL_SEGMENT_LOT
 10
507599.00
 20
1143025.00
  0
VERTEX
  8
VIRTUAL_SEGMENT_LOT
 10
507606.00
 20
1143003.00
  0
VERTEX
  8
VIRTUAL_SEGMENT_LOT
 10
507606.00
 20
1142992.00
  0
VERTEX
  8
VIRTUAL_SEGMENT_LOT
 10
507591.00
 20
1142977.00
  0
VERTEX
  8
VIRTUAL_SEGMENT_LOT
 10
507588.00
 20
1142966.00
  0
VERTEX
  8
VIRTUAL_SEGMENT_LOT
 10
507577.00
 20
1142948.00
  0
VERTEX
  8
VIRTUAL_SEGMENT_LOT
 10
507557.00
 20
1142935.00
  0
VERTEX
  8
VIRTUAL_SEGMENT_LOT
 10
507552.00
 20
1142930.00
  0
VERTEX
  8
VIRTUAL_SEGMENT_LOT
 10
507544.00
 20
1142923.00
  0
VERTEX
  8
VIRTUAL_SEGMENT_LOT
 10
507533.00
 20
1142920.00
  0
VERTEX
  8
VIRTUAL_SEGMENT_LOT
 10
507531.00
 20
1142920.00
  0
SEQEND
  8
VIRTUAL_SEGMENT_LOT
  0
POLYLINE
  8
BDRY_TWP_LOT_UNSURVEYED
 66
     1
 62
     2
  6
DIVIDE
  0
VERTEX
  8
BDRY_TWP_LOT_UNSURVEYED
 10
506781.00
 20
1143811.00
  0
VERTEX
  8
BDRY_TWP_LOT_UNSURVEYED
 10
506764.00
 20
1142876.00
  0
SEQEND
  8
BDRY_TWP_LOT_UNSURVEYED
  0
POLYLINE
  8
BDRY_TWP_LOT-SURVEYED
 66
     1
 62
     2
  6
DASHDOT2
  0
VERTEX
  8
BDRY_TWP_LOT-SURVEYED
 10
502314.00
 20
1142999.00
  0
VERTEX
  8
BDRY_TWP_LOT-SURVEYED
 10
502322.00
 20
1142778.00
  0
SEQEND
  8
BDRY_TWP_LOT-SURVEYED
  0
POLYLINE
  8
VIRTUAL_SEGMENT_LOT
 66
     1
 62
    14
  6
CONTINUOUS
  0
VERTEX
  8
VIRTUAL_SEGMENT_LOT
 10
506764.00
 20
1142876.00
  0
VERTEX
  8
VIRTUAL_SEGMENT_LOT
 10
506767.00
 20
1142875.00
  0
VERTEX
  8
VIRTUAL_SEGMENT_LOT
 10
506780.00
 20
1142868.00
  0
VERTEX
  8
VIRTUAL_SEGMENT_LOT
 10
506797.00
 20
1142864.00
  0
VERTEX
  8
VIRTUAL_SEGMENT_LOT
 10
506815.00
 20
1142864.00
  0
VERTEX
  8
VIRTUAL_SEGMENT_LOT
 10
506841.00
 20
1142875.00
  0
VERTEX
  8
VIRTUAL_SEGMENT_LOT
 10
506874.00
 20
1142894.00
  0
VERTEX
  8
VIRTUAL_SEGMENT_LOT
 10
506913.00
 20
1142916.00
  0
VERTEX
  8
VIRTUAL_SEGMENT_LOT
 10
506957.00
 20
1142938.00
  0
VERTEX
  8
VIRTUAL_SEGMENT_LOT
 10
507005.00
 20
1142965.00
  0
VERTEX
  8
VIRTUAL_SEGMENT_LOT
 10
507055.00
 20
1142997.00
  0
VERTEX
  8
VIRTUAL_SEGMENT_LOT
 10
507086.00
 20
1143021.00
  0
VERTEX
  8
VIRTUAL_SEGMENT_LOT
 10
507120.00
 20
1143045.00
  0
VERTEX
  8
VIRTUAL_SEGMENT_LOT
 10
507148.00
 20
1143061.00
  0
VERTEX
  8
VIRTUAL_SEGMENT_LOT
 10
507168.00
 20
1143068.00
  0
VERTEX
  8
VIRTUAL_SEGMENT_LOT
 10
507177.00
 20
1143063.00
  0
VERTEX
  8
VIRTUAL_SEGMENT_LOT
 10
507189.00
 20
1143054.00
  0
VERTEX
  8
VIRTUAL_SEGMENT_LOT
 10
507198.00
 20
1143044.00
  0
VERTEX
  8
VIRTUAL_SEGMENT_LOT
 10
507204.00
 20
1143028.00
  0
VERTEX
  8
VIRTUAL_SEGMENT_LOT
 10
507203.00
 20
1143017.00
  0
VERTEX
  8
VIRTUAL_SEGMENT_LOT
 10
507192.00
 20
1143006.00
  0
VERTEX
  8
VIRTUAL_SEGMENT_LOT
 10
507180.00
 20
1142993.00
  0
VERTEX
  8
VIRTUAL_SEGMENT_LOT
 10
507158.00
 20
1142986.00
  0
VERTEX
  8
VIRTUAL_SEGMENT_LOT
 10
507129.00
 20
1142970.00
  0
VERTEX
  8
VIRTUAL_SEGMENT_LOT
 10
507110.00
 20
1142952.00
  0
VERTEX
  8
VIRTUAL_SEGMENT_LOT
 10
507093.00
 20
1142929.00
  0
VERTEX
  8
VIRTUAL_SEGMENT_LOT
 10
507080.00
 20
1142908.00
  0
VERTEX
  8
VIRTUAL_SEGMENT_LOT
 10
507066.00
 20
1142887.00
  0
VERTEX
  8
VIRTUAL_SEGMENT_LOT
 10
507056.00
 20
1142870.00
  0
VERTEX
  8
VIRTUAL_SEGMENT_LOT
 10
507050.00
 20
1142860.00
  0
VERTEX
  8
VIRTUAL_SEGMENT_LOT
 10
507044.00
 20
1142840.00
  0
VERTEX
  8
VIRTUAL_SEGMENT_LOT
 10
507055.00
 20
1142835.00
  0
VERTEX
  8
VIRTUAL_SEGMENT_LOT
 10
507069.00
 20
1142832.00
  0
VERTEX
  8
VIRTUAL_SEGMENT_LOT
 10
507079.00
 20
1142829.00
  0
VERTEX
  8
VIRTUAL_SEGMENT_LOT
 10
507083.00
 20
1142816.00
  0
VERTEX
  8
VIRTUAL_SEGMENT_LOT
 10
507079.00
 20
1142802.00
  0
VERTEX
  8
VIRTUAL_SEGMENT_LOT
 10
507079.00
 20
1142790.00
  0
VERTEX
  8
VIRTUAL_SEGMENT_LOT
 10
507081.00
 20
1142780.00
  0
VERTEX
  8
VIRTUAL_SEGMENT_LOT
 10
507087.00
 20
1142776.00
  0
VERTEX
  8
VIRTUAL_SEGMENT_LOT
 10
507101.00
 20
1142783.00
  0
VERTEX
  8
VIRTUAL_SEGMENT_LOT
 10
507127.00
 20
1142802.00
  0
VERTEX
  8
VIRTUAL_SEGMENT_LOT
 10
507160.00
 20
1142831.00
  0
VERTEX
  8
VIRTUAL_SEGMENT_LOT
 10
507187.00
 20
1142854.00
  0
VERTEX
  8
VIRTUAL_SEGMENT_LOT
 10
507209.00
 20
1142870.00
  0
VERTEX
  8
VIRTUAL_SEGMENT_LOT
 10
507228.00
 20
1142886.00
  0
VERTEX
  8
VIRTUAL_SEGMENT_LOT
 10
507242.00
 20
1142897.00
  0
VERTEX
  8
VIRTUAL_SEGMENT_LOT
 10
507257.00
 20
1142902.00
  0
VERTEX
  8
VIRTUAL_SEGMENT_LOT
 10
507263.00
 20
1142899.00
  0
VERTEX
  8
VIRTUAL_SEGMENT_LOT
 10
507277.00
 20
1142895.00
  0
VERTEX
  8
VIRTUAL_SEGMENT_LOT
 10
507288.00
 20
1142906.00
  0
VERTEX
  8
VIRTUAL_SEGMENT_LOT
 10
507319.00
 20
1142937.00
  0
VERTEX
  8
VIRTUAL_SEGMENT_LOT
 10
507346.00
 20
1142966.00
  0
VERTEX
  8
VIRTUAL_SEGMENT_LOT
 10
507365.00
 20
1142994.00
  0
VERTEX
  8
VIRTUAL_SEGMENT_LOT
 10
507379.00
 20
1143017.00
  0
VERTEX
  8
VIRTUAL_SEGMENT_LOT
 10
507397.00
 20
1143035.00
  0
VERTEX
  8
VIRTUAL_SEGMENT_LOT
 10
507418.00
 20
1143037.00
  0
VERTEX
  8
VIRTUAL_SEGMENT_LOT
 10
507434.00
 20
1143031.00
  0
VERTEX
  8
VIRTUAL_SEGMENT_LOT
 10
507431.00
 20
1143015.00
  0
VERTEX
  8
VIRTUAL_SEGMENT_LOT
 10
507433.00
 20
1143007.00
  0
VERTEX
  8
VIRTUAL_SEGMENT_LOT
 10
507447.00
 20
1143009.00
  0
VERTEX
  8
VIRTUAL_SEGMENT_LOT
 10
507504.00
 20
1143038.00
  0
VERTEX
  8
VIRTUAL_SEGMENT_LOT
 10
507535.00
 20
1143054.00
  0
SEQEND
  8
VIRTUAL_SEGMENT_LOT
  0
POLYLINE
  8
VIRTUAL_SEGMENT_LOT
 66
     1
 62
    14
  6
CONTINUOUS
  0
VERTEX
  8
VIRTUAL_SEGMENT_LOT
 10
502322.00
 20
1142778.00
  0
VERTEX
  8
VIRTUAL_SEGMENT_LOT
 10
502323.00
 20
1142677.00
  0
SEQEND
  8
VIRTUAL_SEGMENT_LOT
  0
POLYLINE
  8
BDRY_TWP_LOT_UNSURVEYED
 66
     1
 62
     2
  6
DIVIDE
  0
VERTEX
  8
BDRY_TWP_LOT_UNSURVEYED
 10
508348.00
 20
1143679.00
  0
VERTEX
  8
BDRY_TWP_LOT_UNSURVEYED
 10
508331.69
 20
1142641.50
  0
SEQEND
  8
BDRY_TWP_LOT_UNSURVEYED
  0
POLYLINE
  8
VIRTUAL_SEGMENT_LOT
 66
     1
 62
    14
  6
CONTINUOUS
  0
VERTEX
  8
VIRTUAL_SEGMENT_LOT
 10
508331.69
 20
1142641.50
  0
VERTEX
  8
VIRTUAL_SEGMENT_LOT
 10
508329.31
 20
1142490.00
  0
SEQEND
  8
VIRTUAL_SEGMENT_LOT
  0
POLYLINE
  8
VIRTUAL_SEGMENT_LOT
 66
     1
 62
    14
  6
CONTINUOUS
  0
VERTEX
  8
VIRTUAL_SEGMENT_LOT
 10
507531.00
 20
1142920.00
  0
VERTEX
  8
VIRTUAL_SEGMENT_LOT
 10
507518.00
 20
1142917.00
  0
VERTEX
  8
VIRTUAL_SEGMENT_LOT
 10
507514.00
 20
1142904.00
  0
VERTEX
  8
VIRTUAL_SEGMENT_LOT
 10
507502.00
 20
1142891.00
  0
VERTEX
  8
VIRTUAL_SEGMENT_LOT
 10
507477.00
 20
1142871.00
  0
VERTEX
  8
VIRTUAL_SEGMENT_LOT
 10
507460.00
 20
1142857.00
  0
VERTEX
  8
VIRTUAL_SEGMENT_LOT
 10
507443.00
 20
1142856.00
  0
VERTEX
  8
VIRTUAL_SEGMENT_LOT
 10
507421.00
 20
1142847.00
  0
VERTEX
  8
VIRTUAL_SEGMENT_LOT
 10
507416.00
 20
1142836.00
  0
VERTEX
  8
VIRTUAL_SEGMENT_LOT
 10
507409.00
 20
1142823.00
  0
VERTEX
  8
VIRTUAL_SEGMENT_LOT
 10
507399.00
 20
1142815.00
  0
VERTEX
  8
VIRTUAL_SEGMENT_LOT
 10
507380.00
 20
1142805.00
  0
VERTEX
  8
VIRTUAL_SEGMENT_LOT
 10
507371.00
 20
1142794.00
  0
VERTEX
  8
VIRTUAL_SEGMENT_LOT
 10
507360.00
 20
1142786.00
  0
VERTEX
  8
VIRTUAL_SEGMENT_LOT
 10
507355.00
 20
1142776.00
  0
VERTEX
  8
VIRTUAL_SEGMENT_LOT
 10
507336.00
 20
1142763.00
  0
VERTEX
  8
VIRTUAL_SEGMENT_LOT
 10
507324.00
 20
1142751.00
  0
VERTEX
  8
VIRTUAL_SEGMENT_LOT
 10
507315.00
 20
1142727.00
  0
VERTEX
  8
VIRTUAL_SEGMENT_LOT
 10
507310.00
 20
1142708.00
  0
VERTEX
  8
VIRTUAL_SEGMENT_LOT
 10
507307.00
 20
1142694.00
  0
VERTEX
  8
VIRTUAL_SEGMENT_LOT
 10
507303.00
 20
1142682.00
  0
VERTEX
  8
VIRTUAL_SEGMENT_LOT
 10
507284.00
 20
1142670.00
  0
VERTEX
  8
VIRTUAL_SEGMENT_LOT
 10
507264.00
 20
1142654.00
  0
VERTEX
  8
VIRTUAL_SEGMENT_LOT
 10
507238.00
 20
1142641.00
  0
VERTEX
  8
VIRTUAL_SEGMENT_LOT
 10
507214.00
 20
1142632.00
  0
VERTEX
  8
VIRTUAL_SEGMENT_LOT
 10
507194.00
 20
1142627.00
  0
VERTEX
  8
VIRTUAL_SEGMENT_LOT
 10
507174.00
 20
1142623.00
  0
VERTEX
  8
VIRTUAL_SEGMENT_LOT
 10
507167.00
 20
1142619.00
  0
VERTEX
  8
VIRTUAL_SEGMENT_LOT
 10
507161.00
 20
1142603.00
  0
VERTEX
  8
VIRTUAL_SEGMENT_LOT
 10
507151.00
 20
1142588.00
  0
VERTEX
  8
VIRTUAL_SEGMENT_LOT
 10
507131.00
 20
1142571.00
  0
VERTEX
  8
VIRTUAL_SEGMENT_LOT
 10
507106.00
 20
1142558.00
  0
VERTEX
  8
VIRTUAL_SEGMENT_LOT
 10
507082.00
 20
1142543.00
  0
VERTEX
  8
VIRTUAL_SEGMENT_LOT
 10
507061.00
 20
1142538.00
  0
VERTEX
  8
VIRTUAL_SEGMENT_LOT
 10
507032.00
 20
1142531.00
  0
VERTEX
  8
VIRTUAL_SEGMENT_LOT
 10
507009.00
 20
1142531.00
  0
VERTEX
  8
VIRTUAL_SEGMENT_LOT
 10
506979.00
 20
1142533.00
  0
VERTEX
  8
VIRTUAL_SEGMENT_LOT
 10
506963.00
 20
1142525.00
  0
VERTEX
  8
VIRTUAL_SEGMENT_LOT
 10
506941.00
 20
1142515.00
  0
VERTEX
  8
VIRTUAL_SEGMENT_LOT
 10
506916.00
 20
1142521.00
  0
VERTEX
  8
VIRTUAL_SEGMENT_LOT
 10
506890.00
 20
1142529.00
  0
VERTEX
  8
VIRTUAL_SEGMENT_LOT
 10
506866.00
 20
1142527.00
  0
VERTEX
  8
VIRTUAL_SEGMENT_LOT
 10
506847.00
 20
1142512.00
  0
VERTEX
  8
VIRTUAL_SEGMENT_LOT
 10
506828.00
 20
1142493.00
  0
VERTEX
  8
VIRTUAL_SEGMENT_LOT
 10
506816.00
 20
1142479.00
  0
VERTEX
  8
VIRTUAL_SEGMENT_LOT
 10
506801.00
 20
1142462.00
  0
VERTEX
  8
VIRTUAL_SEGMENT_LOT
 10
506788.00
 20
1142445.00
  0
VERTEX
  8
VIRTUAL_SEGMENT_LOT
 10
506776.00
 20
1142443.00
  0
VERTEX
  8
VIRTUAL_SEGMENT_LOT
 10
506762.00
 20
1142438.00
  0
VERTEX
  8
VIRTUAL_SEGMENT_LOT
 10
506755.00
 20
1142430.00
  0
SEQEND
  8
VIRTUAL_SEGMENT_LOT
  0
POLYLINE
  8
VIRTUAL_SEGMENT_LOT
 66
     1
 62
    14
  6
CONTINUOUS
  0
VERTEX
  8
VIRTUAL_SEGMENT_LOT
 10
505908.00
 20
1142413.00
  0
VERTEX
  8
VIRTUAL_SEGMENT_LOT
 10
505924.00
 20
1142418.00
  0
VERTEX
  8
VIRTUAL_SEGMENT_LOT
 10
505937.00
 20
1142432.00
  0
VERTEX
  8
VIRTUAL_SEGMENT_LOT
 10
505957.00
 20
1142452.00
  0
VERTEX
  8
VIRTUAL_SEGMENT_LOT
 10
505975.00
 20
1142471.00
  0
VERTEX
  8
VIRTUAL_SEGMENT_LOT
 10
506000.00
 20
1142484.00
  0
VERTEX
  8
VIRTUAL_SEGMENT_LOT
 10
506023.00
 20
1142499.00
  0
VERTEX
  8
VIRTUAL_SEGMENT_LOT
 10
506040.00
 20
1142520.00
  0
VERTEX
  8
VIRTUAL_SEGMENT_LOT
 10
506054.00
 20
1142542.00
  0
VERTEX
  8
VIRTUAL_SEGMENT_LOT
 10
506075.00
 20
1142588.00
  0
VERTEX
  8
VIRTUAL_SEGMENT_LOT
 10
506086.00
 20
1142638.00
  0
VERTEX
  8
VIRTUAL_SEGMENT_LOT
 10
506099.00
 20
1142679.00
  0
VERTEX
  8
VIRTUAL_SEGMENT_LOT
 10
506110.00
 20
1142708.00
  0
VERTEX
  8
VIRTUAL_SEGMENT_LOT
 10
506122.00
 20
1142726.00
  0
VERTEX
  8
VIRTUAL_SEGMENT_LOT
 10
506141.00
 20
1142739.00
  0
VERTEX
  8
VIRTUAL_SEGMENT_LOT
 10
506175.00
 20
1142743.00
  0
VERTEX
  8
VIRTUAL_SEGMENT_LOT
 10
506209.00
 20
1142747.00
  0
VERTEX
  8
VIRTUAL_SEGMENT_LOT
 10
506232.00
 20
1142739.00
  0
VERTEX
  8
VIRTUAL_SEGMENT_LOT
 10
506262.00
 20
1142720.00
  0
VERTEX
  8
VIRTUAL_SEGMENT_LOT
 10
506281.00
 20
1142715.00
  0
VERTEX
  8
VIRTUAL_SEGMENT_LOT
 10
506290.00
 20
1142718.00
  0
VERTEX
  8
VIRTUAL_SEGMENT_LOT
 10
506303.00
 20
1142736.00
  0
VERTEX
  8
VIRTUAL_SEGMENT_LOT
 10
506314.00
 20
1142753.00
  0
VERTEX
  8
VIRTUAL_SEGMENT_LOT
 10
506332.00
 20
1142764.00
  0
VERTEX
  8
VIRTUAL_SEGMENT_LOT
 10
506372.00
 20
1142774.00
  0
VERTEX
  8
VIRTUAL_SEGMENT_LOT
 10
506428.00
 20
1142789.00
  0
VERTEX
  8
VIRTUAL_SEGMENT_LOT
 10
506461.00
 20
1142797.00
  0
VERTEX
  8
VIRTUAL_SEGMENT_LOT
 10
506475.00
 20
1142788.00
  0
VERTEX
  8
VIRTUAL_SEGMENT_LOT
 10
506497.00
 20
1142783.00
  0
VERTEX
  8
VIRTUAL_SEGMENT_LOT
 10
506516.00
 20
1142788.00
  0
VERTEX
  8
VIRTUAL_SEGMENT_LOT
 10
506530.00
 20
1142800.00
  0
VERTEX
  8
VIRTUAL_SEGMENT_LOT
 10
506544.00
 20
1142817.00
  0
VERTEX
  8
VIRTUAL_SEGMENT_LOT
 10
506557.00
 20
1142825.00
  0
VERTEX
  8
VIRTUAL_SEGMENT_LOT
 10
506613.00
 20
1142844.00
  0
VERTEX
  8
VIRTUAL_SEGMENT_LOT
 10
506689.00
 20
1142862.00
  0
VERTEX
  8
VIRTUAL_SEGMENT_LOT
 10
506751.00
 20
1142878.00
  0
VERTEX
  8
VIRTUAL_SEGMENT_LOT
 10
506764.00
 20
1142876.00
  0
SEQEND
  8
VIRTUAL_SEGMENT_LOT
  0
POLYLINE
  8
BDRY_TWP_LOT-SURVEYED
 66
     1
 62
     2
  6
DASHDOT2
  0
VERTEX
  8
BDRY_TWP_LOT-SURVEYED
 10
505944.00
 20
1143816.00
  0
VERTEX
  8
BDRY_TWP_LOT-SURVEYED
 10
505908.00
 20
1142413.00
  0
SEQEND
  8
BDRY_TWP_LOT-SURVEYED
  0
POLYLINE
  8
BDRY_TWP
 66
     1
 62
     4
  6
CONTINUOUS
  0
VERTEX
  8
BDRY_TWP
 10
504293.00
 20
1143218.00
  0
VERTEX
  8
BDRY_TWP
 10
504292.00
 20
1143215.00
  0
VERTEX
  8
BDRY_TWP
 10
504260.00
 20
1142260.00
  0
SEQEND
  8
BDRY_TWP
  0
POLYLINE
  8
BDRY_TWP_LOT-SURVEYED
 66
     1
 62
     2
  6
DASHDOT2
  0
VERTEX
  8
BDRY_TWP_LOT-SURVEYED
 10
502323.00
 20
1142677.00
  0
VERTEX
  8
BDRY_TWP_LOT-SURVEYED
 10
502338.00
 20
1142243.00
  0
VERTEX
  8
BDRY_TWP_LOT-SURVEYED
 10
502338.06
 20
1142241.25
  0
SEQEND
  8
BDRY_TWP_LOT-SURVEYED
  0
POLYLINE
  8
VIRTUAL_SEGMENT_LOT
 66
     1
 62
    14
  6
CONTINUOUS
  0
VERTEX
  8
VIRTUAL_SEGMENT_LOT
 10
501872.00
 20
1142237.00
  0
VERTEX
  8
VIRTUAL_SEGMENT_LOT
 10
502338.06
 20
1142241.25
  0
SEQEND
  8
VIRTUAL_SEGMENT_LOT
  0
POLYLINE
  8
BDRY_TWP_LOT-SURVEYED
 66
     1
 62
     2
  6
DASHDOT2
  0
VERTEX
  8
BDRY_TWP_LOT-SURVEYED
 10
501501.00
 20
1142234.00
  0
VERTEX
  8
BDRY_TWP_LOT-SURVEYED
 10
501872.00
 20
1142237.00
  0
SEQEND
  8
BDRY_TWP_LOT-SURVEYED
  0
POLYLINE
  8
BDRY_TWP_LOT_UNSURVEYED
 66
     1
 62
     2
  6
DIVIDE
  0
VERTEX
  8
BDRY_TWP_LOT_UNSURVEYED
 10
501493.00
 20
1143800.00
  0
VERTEX
  8
BDRY_TWP_LOT_UNSURVEYED
 10
501501.00
 20
1142234.00
  0
SEQEND
  8
BDRY_TWP_LOT_UNSURVEYED
  0
POLYLINE
  8
BDRY_TWP_LOT-SURVEYED
 66
     1
 62
     2
  6
DASHDOT2
  0
VERTEX
  8
BDRY_TWP_LOT-SURVEYED
 10
501416.00
 20
1142234.00
  0
VERTEX
  8
BDRY_TWP_LOT-SURVEYED
 10
501501.00
 20
1142234.00
  0
SEQEND
  8
BDRY_TWP_LOT-SURVEYED
  0
POLYLINE
  8
VIRTUAL_SEGMENT_LOT
 66
     1
 62
    14
  6
CONTINUOUS
  0
VERTEX
  8
VIRTUAL_SEGMENT_LOT
 10
500701.00
 20
1142231.50
  0
VERTEX
  8
VIRTUAL_SEGMENT_LOT
 10
501416.00
 20
1142234.00
  0
SEQEND
  8
VIRTUAL_SEGMENT_LOT
  0
POLYLINE
  8
BDRY_TWP_LOT-SURVEYED
 66
     1
 62
     2
  6
DASHDOT2
  0
VERTEX
  8
BDRY_TWP_LOT-SURVEYED
 10
500694.00
 20
1143796.00
  0
VERTEX
  8
BDRY_TWP_LOT-SURVEYED
 10
500701.00
 20
1142231.50
  0
SEQEND
  8
BDRY_TWP_LOT-SURVEYED
  0
POLYLINE
  8
VIRTUAL_SEGMENT_LOT
 66
     1
 62
    14
  6
CONTINUOUS
  0
VERTEX
  8
VIRTUAL_SEGMENT_LOT
 10
500000.00
 20
1142229.00
  0
VERTEX
  8
VIRTUAL_SEGMENT_LOT
 10
500701.00
 20
1142231.50
  0
SEQEND
  8
VIRTUAL_SEGMENT_LOT
  0
POLYLINE
  8
BDRY_TWP_LOT-SURVEYED
 66
     1
 62
     2
  6
DASHDOT2
  0
VERTEX
  8
BDRY_TWP_LOT-SURVEYED
 10
507531.00
 20
1142920.00
  0
VERTEX
  8
BDRY_TWP_LOT-SURVEYED
 10
507536.00
 20
1142221.00
  0
SEQEND
  8
BDRY_TWP_LOT-SURVEYED
  0
POLYLINE
  8
BDRY_TWP_LOT_UNSURVEYED
 66
     1
 62
     2
  6
DIVIDE
  0
VERTEX
  8
BDRY_TWP_LOT_UNSURVEYED
 10
508329.31
 20
1142490.00
  0
VERTEX
  8
BDRY_TWP_LOT_UNSURVEYED
 10
508325.00
 20
1142215.00
  0
SEQEND
  8
BDRY_TWP_LOT_UNSURVEYED
  0
POLYLINE
  8
BDRY_TWP_LOT-SURVEYED
 66
     1
 62
     2
  6
DASHDOT2
  0
VERTEX
  8
BDRY_TWP_LOT-SURVEYED
 10
507536.00
 20
1142221.00
  0
VERTEX
  8
BDRY_TWP_LOT-SURVEYED
 10
508325.00
 20
1142215.00
  0
SEQEND
  8
BDRY_TWP_LOT-SURVEYED
  0
POLYLINE
  8
BDRY_TWP_LOT-SURVEYED
 66
     1
 62
     2
  6
DASHDOT2
  0
VERTEX
  8
BDRY_TWP_LOT-SURVEYED
 10
506753.00
 20
1142211.00
  0
VERTEX
  8
BDRY_TWP_LOT-SURVEYED
 10
507536.00
 20
1142221.00
  0
SEQEND
  8
BDRY_TWP_LOT-SURVEYED
  0
POLYLINE
  8
BDRY_TWP_LOT_UNSURVEYED
 66
     1
 62
     2
  6
DIVIDE
  0
VERTEX
  8
BDRY_TWP_LOT_UNSURVEYED
 10
506755.00
 20
1142430.00
  0
VERTEX
  8
BDRY_TWP_LOT_UNSURVEYED
 10
506753.00
 20
1142211.00
  0
SEQEND
  8
BDRY_TWP_LOT_UNSURVEYED
  0
POLYLINE
  8
BDRY_TWP_LOT-SURVEYED
 66
     1
 62
     2
  6
DASHDOT2
  0
VERTEX
  8
BDRY_TWP_LOT-SURVEYED
 10
506486.00
 20
1142209.00
  0
VERTEX
  8
BDRY_TWP_LOT-SURVEYED
 10
506753.00
 20
1142211.00
  0
SEQEND
  8
BDRY_TWP_LOT-SURVEYED
  0
POLYLINE
  8
VIRTUAL_SEGMENT_LOT
 66
     1
 62
    14
  6
CONTINUOUS
  0
VERTEX
  8
VIRTUAL_SEGMENT_LOT
 10
506755.00
 20
1142430.00
  0
VERTEX
  8
VIRTUAL_SEGMENT_LOT
 10
506752.00
 20
1142427.00
  0
VERTEX
  8
VIRTUAL_SEGMENT_LOT
 10
506739.00
 20
1142415.00
  0
VERTEX
  8
VIRTUAL_SEGMENT_LOT
 10
506726.00
 20
1142408.00
  0
VERTEX
  8
VIRTUAL_SEGMENT_LOT
 10
506708.00
 20
1142405.00
  0
VERTEX
  8
VIRTUAL_SEGMENT_LOT
 10
506689.00
 20
1142402.00
  0
VERTEX
  8
VIRTUAL_SEGMENT_LOT
 10
506674.00
 20
1142401.00
  0
VERTEX
  8
VIRTUAL_SEGMENT_LOT
 10
506655.00
 20
1142385.00
  0
VERTEX
  8
VIRTUAL_SEGMENT_LOT
 10
506637.00
 20
1142362.00
  0
VERTEX
  8
VIRTUAL_SEGMENT_LOT
 10
506620.00
 20
1142335.00
  0
VERTEX
  8
VIRTUAL_SEGMENT_LOT
 10
506607.00
 20
1142316.00
  0
VERTEX
  8
VIRTUAL_SEGMENT_LOT
 10
506582.00
 20
1142292.00
  0
VERTEX
  8
VIRTUAL_SEGMENT_LOT
 10
506562.00
 20
1142268.00
  0
VERTEX
  8
VIRTUAL_SEGMENT_LOT
 10
506541.00
 20
1142248.00
  0
VERTEX
  8
VIRTUAL_SEGMENT_LOT
 10
506505.00
 20
1142221.00
  0
VERTEX
  8
VIRTUAL_SEGMENT_LOT
 10
506486.00
 20
1142209.00
  0
SEQEND
  8
VIRTUAL_SEGMENT_LOT
  0
POLYLINE
  8
VIRTUAL_SEGMENT_LOT
 66
     1
 62
    14
  6
CONTINUOUS
  0
VERTEX
  8
VIRTUAL_SEGMENT_LOT
 10
505637.00
 20
1142175.00
  0
VERTEX
  8
VIRTUAL_SEGMENT_LOT
 10
505633.00
 20
1142194.00
  0
VERTEX
  8
VIRTUAL_SEGMENT_LOT
 10
505637.00
 20
1142218.00
  0
VERTEX
  8
VIRTUAL_SEGMENT_LOT
 10
505646.00
 20
1142242.00
  0
VERTEX
  8
VIRTUAL_SEGMENT_LOT
 10
505653.00
 20
1142260.00
  0
VERTEX
  8
VIRTUAL_SEGMENT_LOT
 10
505672.00
 20
1142269.00
  0
VERTEX
  8
VIRTUAL_SEGMENT_LOT
 10
505695.00
 20
1142280.00
  0
VERTEX
  8
VIRTUAL_SEGMENT_LOT
 10
505717.00
 20
1142301.00
  0
VERTEX
  8
VIRTUAL_SEGMENT_LOT
 10
505746.00
 20
1142319.00
  0
VERTEX
  8
VIRTUAL_SEGMENT_LOT
 10
505788.00
 20
1142349.00
  0
VERTEX
  8
VIRTUAL_SEGMENT_LOT
 10
505831.00
 20
1142377.00
  0
VERTEX
  8
VIRTUAL_SEGMENT_LOT
 10
505867.00
 20
1142402.00
  0
VERTEX
  8
VIRTUAL_SEGMENT_LOT
 10
505881.00
 20
1142410.00
  0
VERTEX
  8
VIRTUAL_SEGMENT_LOT
 10
505904.00
 20
1142412.00
  0
VERTEX
  8
VIRTUAL_SEGMENT_LOT
 10
505908.00
 20
1142413.00
  0
SEQEND
  8
VIRTUAL_SEGMENT_LOT
  0
POLYLINE
  8
BDRY_TWP_LOT-SURVEYED
 66
     1
 62
     2
  6
DASHDOT2
  0
VERTEX
  8
BDRY_TWP_LOT-SURVEYED
 10
509152.00
 20
1143800.00
  0
VERTEX
  8
BDRY_TWP_LOT-SURVEYED
 10
509119.00
 20
1142169.00
  0
SEQEND
  8
BDRY_TWP_LOT-SURVEYED
  0
POLYLINE
  8
BDRY_TWP_LOT-SURVEYED
 66
     1
 62
     2
  6
DASHDOT2
  0
VERTEX
  8
BDRY_TWP_LOT-SURVEYED
 10
508325.00
 20
1142215.00
  0
VERTEX
  8
BDRY_TWP_LOT-SURVEYED
 10
509119.00
 20
1142169.00
  0
SEQEND
  8
BDRY_TWP_LOT-SURVEYED
  0
POLYLINE
  8
BDRY_TWP_LOT-SURVEYED
 66
     1
 62
     2
  6
DASHDOT2
  0
VERTEX
  8
BDRY_TWP_LOT-SURVEYED
 10
509119.00
 20
1142169.00
  0
VERTEX
  8
BDRY_TWP_LOT-SURVEYED
 10
509174.72
 20
1142168.88
  0
SEQEND
  8
BDRY_TWP_LOT-SURVEYED
  0
POLYLINE
  8
VIRTUAL_SEGMENT_LOT
 66
     1
 62
    14
  6
CONTINUOUS
  0
VERTEX
  8
VIRTUAL_SEGMENT_LOT
 10
509174.72
 20
1142168.88
  0
VERTEX
  8
VIRTUAL_SEGMENT_LOT
 10
509373.44
 20
1142168.38
  0
SEQEND
  8
VIRTUAL_SEGMENT_LOT
  0
POLYLINE
  8
BDRY_TWP_LOT-SURVEYED
 66
     1
 62
     2
  6
DASHDOT2
  0
VERTEX
  8
BDRY_TWP_LOT-SURVEYED
 10
509373.44
 20
1142168.38
  0
VERTEX
  8
BDRY_TWP_LOT-SURVEYED
 10
510000.00
 20
1142167.00
  0
SEQEND
  8
BDRY_TWP_LOT-SURVEYED
  0
POLYLINE
  8
BDRY_TWP_LOT-SURVEYED
 66
     1
 62
     2
  6
DASHDOT2
  0
VERTEX
  8
BDRY_TWP_LOT-SURVEYED
 10
505258.00
 20
1142163.00
  0
VERTEX
  8
BDRY_TWP_LOT-SURVEYED
 10
505637.00
 20
1142175.00
  0
SEQEND
  8
BDRY_TWP_LOT-SURVEYED
  0
POLYLINE
  8
VIRTUAL_SEGMENT_LOT
 66
     1
 62
    14
  6
CONTINUOUS
  0
VERTEX
  8
VIRTUAL_SEGMENT_LOT
 10
505103.00
 20
1142160.38
  0
VERTEX
  8
VIRTUAL_SEGMENT_LOT
 10
505258.00
 20
1142163.00
  0
SEQEND
  8
VIRTUAL_SEGMENT_LOT
  0
POLYLINE
  8
BDRY_TWP_LOT_UNSURVEYED
 66
     1
 62
     2
  6
DIVIDE
  0
VERTEX
  8
BDRY_TWP_LOT_UNSURVEYED
 10
505117.16
 20
1143061.50
  0
VERTEX
  8
BDRY_TWP_LOT_UNSURVEYED
 10
505103.00
 20
1142160.38
  0
SEQEND
  8
BDRY_TWP_LOT_UNSURVEYED
  0
POLYLINE
  8
VIRTUAL_SEGMENT_LOT
 66
     1
 62
    14
  6
CONTINUOUS
  0
VERTEX
  8
VIRTUAL_SEGMENT_LOT
 10
504259.00
 20
1142146.00
  0
VERTEX
  8
VIRTUAL_SEGMENT_LOT
 10
505103.00
 20
1142160.38
  0
SEQEND
  8
VIRTUAL_SEGMENT_LOT
  0
POLYLINE
  8
BDRY_TWP
 66
     1
 62
     4
  6
CONTINUOUS
  0
VERTEX
  8
BDRY_TWP
 10
504260.00
 20
1142260.00
  0
VERTEX
  8
BDRY_TWP
 10
504259.00
 20
1142146.00
  0
SEQEND
  8
BDRY_TWP
  0
POLYLINE
  8
VIRTUAL_SEGMENT_LOT
 66
     1
 62
    14
  6
CONTINUOUS
  0
VERTEX
  8
VIRTUAL_SEGMENT_LOT
 10
506486.00
 20
1142209.00
  0
VERTEX
  8
VIRTUAL_SEGMENT_LOT
 10
506474.00
 20
1142202.00
  0
VERTEX
  8
VIRTUAL_SEGMENT_LOT
 10
506446.00
 20
1142187.00
  0
VERTEX
  8
VIRTUAL_SEGMENT_LOT
 10
506426.00
 20
1142178.00
  0
VERTEX
  8
VIRTUAL_SEGMENT_LOT
 10
506406.00
 20
1142164.00
  0
VERTEX
  8
VIRTUAL_SEGMENT_LOT
 10
506394.00
 20
1142152.00
  0
VERTEX
  8
VIRTUAL_SEGMENT_LOT
 10
506374.00
 20
1142140.00
  0
VERTEX
  8
VIRTUAL_SEGMENT_LOT
 10
506340.00
 20
1142133.00
  0
VERTEX
  8
VIRTUAL_SEGMENT_LOT
 10
506300.00
 20
1142125.00
  0
VERTEX
  8
VIRTUAL_SEGMENT_LOT
 10
506264.00
 20
1142123.00
  0
VERTEX
  8
VIRTUAL_SEGMENT_LOT
 10
506234.00
 20
1142125.00
  0
VERTEX
  8
VIRTUAL_SEGMENT_LOT
 10
506209.00
 20
1142129.00
  0
VERTEX
  8
VIRTUAL_SEGMENT_LOT
 10
506185.00
 20
1142135.00
  0
VERTEX
  8
VIRTUAL_SEGMENT_LOT
 10
506166.00
 20
1142156.00
  0
VERTEX
  8
VIRTUAL_SEGMENT_LOT
 10
506158.00
 20
1142166.00
  0
VERTEX
  8
VIRTUAL_SEGMENT_LOT
 10
506145.00
 20
1142171.00
  0
VERTEX
  8
VIRTUAL_SEGMENT_LOT
 10
506103.00
 20
1142151.00
  0
VERTEX
  8
VIRTUAL_SEGMENT_LOT
 10
506046.00
 20
1142117.00
  0
VERTEX
  8
VIRTUAL_SEGMENT_LOT
 10
505995.00
 20
1142086.00
  0
VERTEX
  8
VIRTUAL_SEGMENT_LOT
 10
505945.00
 20
1142055.00
  0
SEQEND
  8
VIRTUAL_SEGMENT_LOT
  0
POLYLINE
  8
BDRY_TWP_LOT-SURVEYED
 66
     1
 62
     2
  6
DASHDOT2
  0
VERTEX
  8
BDRY_TWP_LOT-SURVEYED
 10
509119.00
 20
1142169.00
  0
VERTEX
  8
BDRY_TWP_LOT-SURVEYED
 10
509122.38
 20
1142048.50
  0
SEQEND
  8
BDRY_TWP_LOT-SURVEYED
  0
POLYLINE
  8
VIRTUAL_SEGMENT_LOT
 66
     1
 62
    14
  6
CONTINUOUS
  0
VERTEX
  8
VIRTUAL_SEGMENT_LOT
 10
509122.38
 20
1142048.50
  0
VERTEX
  8
VIRTUAL_SEGMENT_LOT
 10
509123.81
 20
1141998.00
  0
SEQEND
  8
VIRTUAL_SEGMENT_LOT
  0
POLYLINE
  8
VIRTUAL_SEGMENT_LOT
 66
     1
 62
    14
  6
CONTINUOUS
  0
VERTEX
  8
VIRTUAL_SEGMENT_LOT
 10
505945.00
 20
1142055.00
  0
VERTEX
  8
VIRTUAL_SEGMENT_LOT
 10
505942.00
 20
1142053.00
  0
VERTEX
  8
VIRTUAL_SEGMENT_LOT
 10
505907.00
 20
1142035.00
  0
VERTEX
  8
VIRTUAL_SEGMENT_LOT
 10
505871.00
 20
1142003.00
  0
VERTEX
  8
VIRTUAL_SEGMENT_LOT
 10
505835.00
 20
1141977.00
  0
VERTEX
  8
VIRTUAL_SEGMENT_LOT
 10
505805.00
 20
1141962.00
  0
VERTEX
  8
VIRTUAL_SEGMENT_LOT
 10
505793.00
 20
1141960.00
  0
VERTEX
  8
VIRTUAL_SEGMENT_LOT
 10
505776.00
 20
1141960.00
  0
VERTEX
  8
VIRTUAL_SEGMENT_LOT
 10
505736.00
 20
1141959.00
  0
VERTEX
  8
VIRTUAL_SEGMENT_LOT
 10
505692.00
 20
1141960.00
  0
VERTEX
  8
VIRTUAL_SEGMENT_LOT
 10
505662.00
 20
1141961.00
  0
VERTEX
  8
VIRTUAL_SEGMENT_LOT
 10
505630.00
 20
1141962.00
  0
VERTEX
  8
VIRTUAL_SEGMENT_LOT
 10
505616.00
 20
1141965.00
  0
VERTEX
  8
VIRTUAL_SEGMENT_LOT
 10
505606.00
 20
1141971.00
  0
VERTEX
  8
VIRTUAL_SEGMENT_LOT
 10
505605.00
 20
1142006.00
  0
VERTEX
  8
VIRTUAL_SEGMENT_LOT
 10
505604.00
 20
1142050.00
  0
VERTEX
  8
VIRTUAL_SEGMENT_LOT
 10
505615.00
 20
1142073.00
  0
VERTEX
  8
VIRTUAL_SEGMENT_LOT
 10
505629.00
 20
1142101.00
  0
VERTEX
  8
VIRTUAL_SEGMENT_LOT
 10
505636.00
 20
1142134.00
  0
VERTEX
  8
VIRTUAL_SEGMENT_LOT
 10
505639.00
 20
1142166.00
  0
VERTEX
  8
VIRTUAL_SEGMENT_LOT
 10
505637.00
 20
1142175.00
  0
SEQEND
  8
VIRTUAL_SEGMENT_LOT
  0
POLYLINE
  8
BDRY_TWP_LOT-SURVEYED
 66
     1
 62
     2
  6
DASHDOT2
  0
VERTEX
  8
BDRY_TWP_LOT-SURVEYED
 10
509123.81
 20
1141998.00
  0
VERTEX
  8
BDRY_TWP_LOT-SURVEYED
 10
509126.00
 20
1141919.00
  0
SEQEND
  8
BDRY_TWP_LOT-SURVEYED
  0
POLYLINE
  8
BDRY_TWP_LOT_UNSURVEYED
 66
     1
 62
     2
  6
DIVIDE
  0
VERTEX
  8
BDRY_TWP_LOT_UNSURVEYED
 10
505103.00
 20
1142160.38
  0
VERTEX
  8
BDRY_TWP_LOT_UNSURVEYED
 10
505103.00
 20
1142160.00
  0
VERTEX
  8
BDRY_TWP_LOT_UNSURVEYED
 10
505107.88
 20
1141889.13
  0
SEQEND
  8
BDRY_TWP_LOT_UNSURVEYED
  0
POLYLINE
  8
VIRTUAL_SEGMENT_LOT
 66
     1
 62
    14
  6
CONTINUOUS
  0
VERTEX
  8
VIRTUAL_SEGMENT_LOT
 10
505107.88
 20
1141889.13
  0
VERTEX
  8
VIRTUAL_SEGMENT_LOT
 10
505108.09
 20
1141877.88
  0
SEQEND
  8
VIRTUAL_SEGMENT_LOT
  0
POLYLINE
  8
VIRTUAL_SEGMENT_LOT
 66
     1
 62
    14
  6
CONTINUOUS
  0
VERTEX
  8
VIRTUAL_SEGMENT_LOT
 10
509126.00
 20
1141919.00
  0
VERTEX
  8
VIRTUAL_SEGMENT_LOT
 10
509128.00
 20
1141845.00
  0
SEQEND
  8
VIRTUAL_SEGMENT_LOT
  0
POLYLINE
  8
BDRY_TWP_LOT-SURVEYED
 66
     1
 62
     2
  6
DASHDOT2
  0
VERTEX
  8
BDRY_TWP_LOT-SURVEYED
 10
509128.00
 20
1141845.00
  0
VERTEX
  8
BDRY_TWP_LOT-SURVEYED
 10
509144.00
 20
1141180.00
  0
SEQEND
  8
BDRY_TWP_LOT-SURVEYED
  0
POLYLINE
  8
BDRY_TWP
 66
     1
 62
     4
  6
CONTINUOUS
  0
VERTEX
  8
BDRY_TWP
 10
504259.00
 20
1142146.00
  0
VERTEX
  8
BDRY_TWP
 10
504252.00
 20
1141122.00
  0
SEQEND
  8
BDRY_TWP
  0
POLYLINE
  8
VIRTUAL_SEGMENT_LOT
 66
     1
 62
    14
  6
CONTINUOUS
  0
VERTEX
  8
VIRTUAL_SEGMENT_LOT
 10
509144.00
 20
1141180.00
  0
VERTEX
  8
VIRTUAL_SEGMENT_LOT
 10
509147.00
 20
1141099.00
  0
SEQEND
  8
VIRTUAL_SEGMENT_LOT
  0
POLYLINE
  8
BDRY_TWP_LOT_UNSURVEYED
 66
     1
 62
     2
  6
DIVIDE
  0
VERTEX
  8
BDRY_TWP_LOT_UNSURVEYED
 10
505108.09
 20
1141877.88
  0
VERTEX
  8
BDRY_TWP_LOT_UNSURVEYED
 10
505124.25
 20
1140981.63
  0
SEQEND
  8
BDRY_TWP_LOT_UNSURVEYED
  0
POLYLINE
  8
VIRTUAL_SEGMENT_LOT
 66
     1
 62
    14
  6
CONTINUOUS
  0
VERTEX
  8
VIRTUAL_SEGMENT_LOT
 10
505124.25
 20
1140981.63
  0
VERTEX
  8
VIRTUAL_SEGMENT_LOT
 10
505124.84
 20
1140947.38
  0
SEQEND
  8
VIRTUAL_SEGMENT_LOT
  0
POLYLINE
  8
BDRY_TWP_LOT_UNSURVEYED
 66
     1
 62
     2
  6
DIVIDE
  0
VERTEX
  8
BDRY_TWP_LOT_UNSURVEYED
 10
505124.84
 20
1140947.38
  0
VERTEX
  8
BDRY_TWP_LOT_UNSURVEYED
 10
505125.19
 20
1140928.38
  0
SEQEND
  8
BDRY_TWP_LOT_UNSURVEYED
  0
POLYLINE
  8
BDRY_TWP_LOT-SURVEYED
 66
     1
 62
     2
  6
DASHDOT2
  0
VERTEX
  8
BDRY_TWP_LOT-SURVEYED
 10
507536.00
 20
1142221.00
  0
VERTEX
  8
BDRY_TWP_LOT-SURVEYED
 10
507544.59
 20
1140913.88
  0
SEQEND
  8
BDRY_TWP_LOT-SURVEYED
  0
POLYLINE
  8
VIRTUAL_SEGMENT_LOT
 66
     1
 62
    14
  6
CONTINUOUS
  0
VERTEX
  8
VIRTUAL_SEGMENT_LOT
 10
505125.19
 20
1140928.38
  0
VERTEX
  8
VIRTUAL_SEGMENT_LOT
 10
505126.38
 20
1140862.50
  0
SEQEND
  8
VIRTUAL_SEGMENT_LOT
  0
POLYLINE
  8
VIRTUAL_SEGMENT_LOT
 66
     1
 62
    14
  6
CONTINUOUS
  0
VERTEX
  8
VIRTUAL_SEGMENT_LOT
 10
507544.59
 20
1140913.88
  0
VERTEX
  8
VIRTUAL_SEGMENT_LOT
 10
507544.97
 20
1140853.75
  0
SEQEND
  8
VIRTUAL_SEGMENT_LOT
  0
POLYLINE
  8
VIRTUAL_SEGMENT_LOT
 66
     1
 62
    14
  6
CONTINUOUS
  0
VERTEX
  8
VIRTUAL_SEGMENT_LOT
 10
504252.00
 20
1141122.00
  0
VERTEX
  8
VIRTUAL_SEGMENT_LOT
 10
504257.00
 20
1141126.00
  0
VERTEX
  8
VIRTUAL_SEGMENT_LOT
 10
504285.00
 20
1141159.00
  0
VERTEX
  8
VIRTUAL_SEGMENT_LOT
 10
504299.00
 20
1141176.00
  0
VERTEX
  8
VIRTUAL_SEGMENT_LOT
 10
504314.00
 20
1141203.00
  0
VERTEX
  8
VIRTUAL_SEGMENT_LOT
 10
504331.00
 20
1141226.00
  0
VERTEX
  8
VIRTUAL_SEGMENT_LOT
 10
504344.00
 20
1141242.00
  0
VERTEX
  8
VIRTUAL_SEGMENT_LOT
 10
504362.00
 20
1141254.00
  0
VERTEX
  8
VIRTUAL_SEGMENT_LOT
 10
504375.00
 20
1141260.00
  0
VERTEX
  8
VIRTUAL_SEGMENT_LOT
 10
504394.00
 20
1141260.00
  0
VERTEX
  8
VIRTUAL_SEGMENT_LOT
 10
504450.00
 20
1141250.00
  0
VERTEX
  8
VIRTUAL_SEGMENT_LOT
 10
504482.00
 20
1141231.00
  0
VERTEX
  8
VIRTUAL_SEGMENT_LOT
 10
504488.00
 20
1141213.00
  0
VERTEX
  8
VIRTUAL_SEGMENT_LOT
 10
504495.00
 20
1141190.00
  0
VERTEX
  8
VIRTUAL_SEGMENT_LOT
 10
504494.00
 20
1141175.00
  0
VERTEX
  8
VIRTUAL_SEGMENT_LOT
 10
504479.00
 20
1141176.00
  0
VERTEX
  8
VIRTUAL_SEGMENT_LOT
 10
504467.00
 20
1141177.00
  0
VERTEX
  8
VIRTUAL_SEGMENT_LOT
 10
504457.00
 20
1141168.00
  0
VERTEX
  8
VIRTUAL_SEGMENT_LOT
 10
504448.00
 20
1141156.00
  0
VERTEX
  8
VIRTUAL_SEGMENT_LOT
 10
504443.00
 20
1141146.00
  0
VERTEX
  8
VIRTUAL_SEGMENT_LOT
 10
504442.00
 20
1141140.00
  0
VERTEX
  8
VIRTUAL_SEGMENT_LOT
 10
504451.00
 20
1141117.00
  0
VERTEX
  8
VIRTUAL_SEGMENT_LOT
 10
504459.00
 20
1141093.00
  0
VERTEX
  8
VIRTUAL_SEGMENT_LOT
 10
504471.00
 20
1141069.00
  0
VERTEX
  8
VIRTUAL_SEGMENT_LOT
 10
504481.00
 20
1141055.00
  0
VERTEX
  8
VIRTUAL_SEGMENT_LOT
 10
504489.00
 20
1141037.00
  0
VERTEX
  8
VIRTUAL_SEGMENT_LOT
 10
504496.00
 20
1141011.00
  0
VERTEX
  8
VIRTUAL_SEGMENT_LOT
 10
504506.00
 20
1140980.00
  0
VERTEX
  8
VIRTUAL_SEGMENT_LOT
 10
504508.00
 20
1140944.00
  0
VERTEX
  8
VIRTUAL_SEGMENT_LOT
 10
504491.00
 20
1140894.00
  0
VERTEX
  8
VIRTUAL_SEGMENT_LOT
 10
504476.00
 20
1140872.00
  0
VERTEX
  8
VIRTUAL_SEGMENT_LOT
 10
504465.00
 20
1140855.00
  0
VERTEX
  8
VIRTUAL_SEGMENT_LOT
 10
504448.00
 20
1140836.00
  0
VERTEX
  8
VIRTUAL_SEGMENT_LOT
 10
504414.00
 20
1140823.00
  0
VERTEX
  8
VIRTUAL_SEGMENT_LOT
 10
504376.00
 20
1140810.00
  0
VERTEX
  8
VIRTUAL_SEGMENT_LOT
 10
504346.00
 20
1140797.00
  0
VERTEX
  8
VIRTUAL_SEGMENT_LOT
 10
504320.00
 20
1140796.00
  0
VERTEX
  8
VIRTUAL_SEGMENT_LOT
 10
504302.00
 20
1140801.00
  0
VERTEX
  8
VIRTUAL_SEGMENT_LOT
 10
504290.00
 20
1140803.00
  0
VERTEX
  8
VIRTUAL_SEGMENT_LOT
 10
504268.00
 20
1140796.00
  0
VERTEX
  8
VIRTUAL_SEGMENT_LOT
 10
504247.00
 20
1140781.00
  0
SEQEND
  8
VIRTUAL_SEGMENT_LOT
  0
POLYLINE
  8
VIRTUAL_SEGMENT_TOWNSHIP
 66
     1
 62
    14
  6
CONTINUOUS
  0
VERTEX
  8
VIRTUAL_SEGMENT_TOWNSHIP
 10
504247.00
 20
1140781.00
  0
VERTEX
  8
VIRTUAL_SEGMENT_TOWNSHIP
 10
504252.00
 20
1141122.00
  0
SEQEND
  8
VIRTUAL_SEGMENT_TOWNSHIP
  0
POLYLINE
  8
BDRY_TWP
 66
     1
 62
     4
  6
CONTINUOUS
  0
VERTEX
  8
BDRY_TWP
 10
504247.00
 20
1140781.00
  0
VERTEX
  8
BDRY_TWP
 10
504249.00
 20
1140638.00
  0
SEQEND
  8
BDRY_TWP
  0
POLYLINE
  8
BDRY_TWP_LOT-SURVEYED
 66
     1
 62
     2
  6
DASHDOT2
  0
VERTEX
  8
BDRY_TWP_LOT-SURVEYED
 10
502338.06
 20
1142241.25
  0
VERTEX
  8
BDRY_TWP_LOT-SURVEYED
 10
502387.00
 20
1140635.00
  0
SEQEND
  8
BDRY_TWP_LOT-SURVEYED
  0
POLYLINE
  8
BDRY_TWP_LOT-SURVEYED
 66
     1
 62
     2
  6
DASHDOT2
  0
VERTEX
  8
BDRY_TWP_LOT-SURVEYED
 10
500701.00
 20
1142231.50
  0
VERTEX
  8
BDRY_TWP_LOT-SURVEYED
 10
500701.00
 20
1142231.00
  0
VERTEX
  8
BDRY_TWP_LOT-SURVEYED
 10
500728.00
 20
1140631.00
  0
SEQEND
  8
BDRY_TWP_LOT-SURVEYED
  0
POLYLINE
  8
VIRTUAL_SEGMENT_LOT
 66
     1
 62
    14
  6
CONTINUOUS
  0
VERTEX
  8
VIRTUAL_SEGMENT_LOT
 10
500760.59
 20
1140630.13
  0
VERTEX
  8
VIRTUAL_SEGMENT_LOT
 10
500839.28
 20
1140630.38
  0
SEQEND
  8
VIRTUAL_SEGMENT_LOT
  0
POLYLINE
  8
BDRY_TWP_LOT_UNSURVEYED
 66
     1
 62
     2
  6
DIVIDE
  0
VERTEX
  8
BDRY_TWP_LOT_UNSURVEYED
 10
500738.00
 20
1140630.00
  0
VERTEX
  8
BDRY_TWP_LOT_UNSURVEYED
 10
500760.59
 20
1140630.13
  0
SEQEND
  8
BDRY_TWP_LOT_UNSURVEYED
  0
POLYLINE
  8
BDRY_TWP_LOT_UNSURVEYED
 66
     1
 62
     2
  6
DIVIDE
  0
VERTEX
  8
BDRY_TWP_LOT_UNSURVEYED
 10
500728.00
 20
1140631.00
  0
VERTEX
  8
BDRY_TWP_LOT_UNSURVEYED
 10
500738.00
 20
1140630.00
  0
SEQEND
  8
BDRY_TWP_LOT_UNSURVEYED
  0
POLYLINE
  8
BDRY_TWP_LOT_UNSURVEYED
 66
     1
 62
     2
  6
DIVIDE
  0
VERTEX
  8
BDRY_TWP_LOT_UNSURVEYED
 10
500000.00
 20
1140629.00
  0
VERTEX
  8
BDRY_TWP_LOT_UNSURVEYED
 10
500728.00
 20
1140631.00
  0
SEQEND
  8
BDRY_TWP_LOT_UNSURVEYED
  0
POLYLINE
  8
BDRY_TWP_LOT-SURVEYED
 66
     1
 62
     2
  6
DASHDOT2
  0
VERTEX
  8
BDRY_TWP_LOT-SURVEYED
 10
500738.00
 20
1140630.00
  0
VERTEX
  8
BDRY_TWP_LOT-SURVEYED
 10
500738.06
 20
1140610.38
  0
SEQEND
  8
BDRY_TWP_LOT-SURVEYED
  0
POLYLINE
  8
BDRY_TWP_LOT_UNSURVEYED
 66
     1
 62
     2
  6
DIVIDE
  0
VERTEX
  8
BDRY_TWP_LOT_UNSURVEYED
 10
506753.00
 20
1142211.00
  0
VERTEX
  8
BDRY_TWP_LOT_UNSURVEYED
 10
506734.00
 20
1140548.00
  0
SEQEND
  8
BDRY_TWP_LOT_UNSURVEYED
  0
POLYLINE
  8
VIRTUAL_SEGMENT_LOT
 66
     1
 62
    14
  6
CONTINUOUS
  0
VERTEX
  8
VIRTUAL_SEGMENT_LOT
 10
505807.00
 20
1140548.00
  0
VERTEX
  8
VIRTUAL_SEGMENT_LOT
 10
505875.00
 20
1140547.00
  0
SEQEND
  8
VIRTUAL_SEGMENT_LOT
  0
POLYLINE
  8
BDRY_TWP_LOT-SURVEYED
 66
     1
 62
     2
  6
DASHDOT2
  0
VERTEX
  8
BDRY_TWP_LOT-SURVEYED
 10
505932.00
 20
1140547.00
  0
VERTEX
  8
BDRY_TWP_LOT-SURVEYED
 10
506734.00
 20
1140548.00
  0
SEQEND
  8
BDRY_TWP_LOT-SURVEYED
  0
POLYLINE
  8
BDRY_TWP_LOT-SURVEYED
 66
     1
 62
     2
  6
DASHDOT2
  0
VERTEX
  8
BDRY_TWP_LOT-SURVEYED
 10
505945.00
 20
1142055.00
  0
VERTEX
  8
BDRY_TWP_LOT-SURVEYED
 10
505932.00
 20
1140547.00
  0
SEQEND
  8
BDRY_TWP_LOT-SURVEYED
  0
POLYLINE
  8
BDRY_TWP_LOT-SURVEYED
 66
     1
 62
     2
  6
DASHDOT2
  0
VERTEX
  8
BDRY_TWP_LOT-SURVEYED
 10
505875.00
 20
1140547.00
  0
VERTEX
  8
BDRY_TWP_LOT-SURVEYED
 10
505932.00
 20
1140547.00
  0
SEQEND
  8
BDRY_TWP_LOT-SURVEYED
  0
POLYLINE
  8
BDRY_TWP_LOT-SURVEYED
 66
     1
 62
     2
  6
DASHDOT2
  0
VERTEX
  8
BDRY_TWP_LOT-SURVEYED
 10
505932.00
 20
1140547.00
  0
VERTEX
  8
BDRY_TWP_LOT-SURVEYED
 10
505933.03
 20
1140522.50
  0
SEQEND
  8
BDRY_TWP_LOT-SURVEYED
  0
POLYLINE
  8
BDRY_TWP_LOT_UNSURVEYED
 66
     1
 62
     2
  6
DIVIDE
  0
VERTEX
  8
BDRY_TWP_LOT_UNSURVEYED
 10
506734.00
 20
1140548.00
  0
VERTEX
  8
BDRY_TWP_LOT_UNSURVEYED
 10
506739.00
 20
1140180.00
  0
SEQEND
  8
BDRY_TWP_LOT_UNSURVEYED
  0
POLYLINE
  8
VIRTUAL_SEGMENT_LOT
 66
     1
 62
    14
  6
CONTINUOUS
  0
VERTEX
  8
VIRTUAL_SEGMENT_LOT
 10
504247.00
 20
1140781.00
  0
VERTEX
  8
VIRTUAL_SEGMENT_LOT
 10
504240.00
 20
1140774.00
  0
VERTEX
  8
VIRTUAL_SEGMENT_LOT
 10
504220.00
 20
1140752.00
  0
VERTEX
  8
VIRTUAL_SEGMENT_LOT
 10
504203.00
 20
1140733.00
  0
VERTEX
  8
VIRTUAL_SEGMENT_LOT
 10
504192.00
 20
1140716.00
  0
VERTEX
  8
VIRTUAL_SEGMENT_LOT
 10
504188.00
 20
1140689.00
  0
VERTEX
  8
VIRTUAL_SEGMENT_LOT
 10
504188.00
 20
1140659.00
  0
VERTEX
  8
VIRTUAL_SEGMENT_LOT
 10
504190.00
 20
1140640.00
  0
SEQEND
  8
VIRTUAL_SEGMENT_LOT
  0
POLYLINE
  8
VIRTUAL_SEGMENT_LOT
 66
     1
 62
    14
  6
CONTINUOUS
  0
VERTEX
  8
VIRTUAL_SEGMENT_LOT
 10
503501.81
 20
1140638.00
  0
VERTEX
  8
VIRTUAL_SEGMENT_LOT
 10
503513.00
 20
1140645.00
  0
VERTEX
  8
VIRTUAL_SEGMENT_LOT
 10
503534.00
 20
1140660.00
  0
VERTEX
  8
VIRTUAL_SEGMENT_LOT
 10
503560.00
 20
1140664.00
  0
VERTEX
  8
VIRTUAL_SEGMENT_LOT
 10
503581.00
 20
1140679.00
  0
VERTEX
  8
VIRTUAL_SEGMENT_LOT
 10
503587.00
 20
1140696.00
  0
VERTEX
  8
VIRTUAL_SEGMENT_LOT
 10
503597.00
 20
1140708.00
  0
VERTEX
  8
VIRTUAL_SEGMENT_LOT
 10
503620.00
 20
1140723.00
  0
VERTEX
  8
VIRTUAL_SEGMENT_LOT
 10
503647.00
 20
1140736.00
  0
VERTEX
  8
VIRTUAL_SEGMENT_LOT
 10
503672.00
 20
1140757.00
  0
VERTEX
  8
VIRTUAL_SEGMENT_LOT
 10
503701.00
 20
1140787.00
  0
VERTEX
  8
VIRTUAL_SEGMENT_LOT
 10
503717.00
 20
1140802.00
  0
VERTEX
  8
VIRTUAL_SEGMENT_LOT
 10
503723.00
 20
1140806.00
  0
VERTEX
  8
VIRTUAL_SEGMENT_LOT
 10
503731.00
 20
1140812.00
  0
VERTEX
  8
VIRTUAL_SEGMENT_LOT
 10
503748.00
 20
1140822.00
  0
VERTEX
  8
VIRTUAL_SEGMENT_LOT
 10
503779.00
 20
1140839.00
  0
VERTEX
  8
VIRTUAL_SEGMENT_LOT
 10
503804.00
 20
1140847.00
  0
VERTEX
  8
VIRTUAL_SEGMENT_LOT
 10
503824.00
 20
1140853.00
  0
VERTEX
  8
VIRTUAL_SEGMENT_LOT
 10
503844.00
 20
1140857.00
  0
VERTEX
  8
VIRTUAL_SEGMENT_LOT
 10
503855.00
 20
1140867.00
  0
VERTEX
  8
VIRTUAL_SEGMENT_LOT
 10
503867.00
 20
1140882.00
  0
VERTEX
  8
VIRTUAL_SEGMENT_LOT
 10
503881.00
 20
1140900.00
  0
VERTEX
  8
VIRTUAL_SEGMENT_LOT
 10
503890.00
 20
1140917.00
  0
VERTEX
  8
VIRTUAL_SEGMENT_LOT
 10
503899.00
 20
1140936.00
  0
VERTEX
  8
VIRTUAL_SEGMENT_LOT
 10
503913.00
 20
1140941.00
  0
VERTEX
  8
VIRTUAL_SEGMENT_LOT
 10
503924.00
 20
1140955.00
  0
VERTEX
  8
VIRTUAL_SEGMENT_LOT
 10
503936.00
 20
1140968.00
  0
VERTEX
  8
VIRTUAL_SEGMENT_LOT
 10
503944.00
 20
1140977.00
  0
VERTEX
  8
VIRTUAL_SEGMENT_LOT
 10
503960.00
 20
1140981.00
  0
VERTEX
  8
VIRTUAL_SEGMENT_LOT
 10
503989.00
 20
1140983.00
  0
VERTEX
  8
VIRTUAL_SEGMENT_LOT
 10
504019.00
 20
1140999.00
  0
VERTEX
  8
VIRTUAL_SEGMENT_LOT
 10
504051.00
 20
1141027.00
  0
VERTEX
  8
VIRTUAL_SEGMENT_LOT
 10
504086.00
 20
1141048.00
  0
VERTEX
  8
VIRTUAL_SEGMENT_LOT
 10
504101.00
 20
1141059.00
  0
VERTEX
  8
VIRTUAL_SEGMENT_LOT
 10
504115.00
 20
1141063.00
  0
VERTEX
  8
VIRTUAL_SEGMENT_LOT
 10
504130.00
 20
1141063.00
  0
VERTEX
  8
VIRTUAL_SEGMENT_LOT
 10
504163.00
 20
1141066.00
  0
VERTEX
  8
VIRTUAL_SEGMENT_LOT
 10
504193.00
 20
1141078.00
  0
VERTEX
  8
VIRTUAL_SEGMENT_LOT
 10
504224.00
 20
1141096.00
  0
VERTEX
  8
VIRTUAL_SEGMENT_LOT
 10
504252.00
 20
1141122.00
  0
SEQEND
  8
VIRTUAL_SEGMENT_LOT
  0
POLYLINE
  8
BDRY_TWP_LOT_UNSURVEYED
 66
     1
 62
     2
  6
DIVIDE
  0
VERTEX
  8
BDRY_TWP_LOT_UNSURVEYED
 10
504190.00
 20
1140640.00
  0
VERTEX
  8
BDRY_TWP_LOT_UNSURVEYED
 10
504249.00
 20
1140638.00
  0
SEQEND
  8
BDRY_TWP_LOT_UNSURVEYED
  0
POLYLINE
  8
BDRY_TWP_LOT_UNSURVEYED
 66
     1
 62
     2
  6
DIVIDE
  0
VERTEX
  8
BDRY_TWP_LOT_UNSURVEYED
 10
503179.00
 20
1140637.00
  0
VERTEX
  8
BDRY_TWP_LOT_UNSURVEYED
 10
503501.81
 20
1140638.00
  0
SEQEND
  8
BDRY_TWP_LOT_UNSURVEYED
  0
POLYLINE
  8
BDRY_TWP_LOT_UNSURVEYED
 66
     1
 62
     2
  6
DIVIDE
  0
VERTEX
  8
BDRY_TWP_LOT_UNSURVEYED
 10
501553.00
 20
1140633.00
  0
VERTEX
  8
BDRY_TWP_LOT_UNSURVEYED
 10
502387.00
 20
1140635.00
  0
SEQEND
  8
BDRY_TWP_LOT_UNSURVEYED
  0
POLYLINE
  8
BDRY_TWP_LOT_UNSURVEYED
 66
     1
 62
     2
  6
DIVIDE
  0
VERTEX
  8
BDRY_TWP_LOT_UNSURVEYED
 10
501501.00
 20
1142234.00
  0
VERTEX
  8
BDRY_TWP_LOT_UNSURVEYED
 10
501553.00
 20
1140633.00
  0
SEQEND
  8
BDRY_TWP_LOT_UNSURVEYED
  0
POLYLINE
  8
BDRY_TWP_LOT_UNSURVEYED
 66
     1
 62
     2
  6
DIVIDE
  0
VERTEX
  8
BDRY_TWP_LOT_UNSURVEYED
 10
500839.28
 20
1140630.38
  0
VERTEX
  8
BDRY_TWP_LOT_UNSURVEYED
 10
501553.00
 20
1140633.00
  0
SEQEND
  8
BDRY_TWP_LOT_UNSURVEYED
  0
POLYLINE
  8
VIRTUAL_SEGMENT_LOT
 66
     1
 62
    14
  6
CONTINUOUS
  0
VERTEX
  8
VIRTUAL_SEGMENT_LOT
 10
500738.06
 20
1140610.38
  0
VERTEX
  8
VIRTUAL_SEGMENT_LOT
 10
500738.19
 20
1140566.75
  0
SEQEND
  8
VIRTUAL_SEGMENT_LOT
  0
POLYLINE
  8
BDRY_TWP_LOT-SURVEYED
 66
     1
 62
     2
  6
DASHDOT2
  0
VERTEX
  8
BDRY_TWP_LOT-SURVEYED
 10
509159.00
 20
1140558.00
  0
VERTEX
  8
BDRY_TWP_LOT-SURVEYED
 10
510000.00
 20
1140565.00
  0
SEQEND
  8
BDRY_TWP_LOT-SURVEYED
  0
POLYLINE
  8
BDRY_TWP_LOT-SURVEYED
 66
     1
 62
     2
  6
DASHDOT2
  0
VERTEX
  8
BDRY_TWP_LOT-SURVEYED
 10
509147.00
 20
1141099.00
  0
VERTEX
  8
BDRY_TWP_LOT-SURVEYED
 10
509148.00
 20
1141097.00
  0
VERTEX
  8
BDRY_TWP_LOT-SURVEYED
 10
509159.00
 20
1140558.00
  0
SEQEND
  8
BDRY_TWP_LOT-SURVEYED
  0
POLYLINE
  8
BDRY_TWP_LOT_UNSURVEYED
 66
     1
 62
     2
  6
DIVIDE
  0
VERTEX
  8
BDRY_TWP_LOT_UNSURVEYED
 10
508325.00
 20
1142215.00
  0
VERTEX
  8
BDRY_TWP_LOT_UNSURVEYED
 10
508342.00
 20
1140554.00
  0
SEQEND
  8
BDRY_TWP_LOT_UNSURVEYED
  0
POLYLINE
  8
BDRY_TWP
 66
     1
 62
     4
  6
CONTINUOUS
  0
VERTEX
  8
BDRY_TWP
 10
504249.00
 20
1140638.00
  0
VERTEX
  8
BDRY_TWP
 10
504245.00
 20
1140552.00
  0
SEQEND
  8
BDRY_TWP
  0
POLYLINE
  8
BDRY_TWP_LOT-SURVEYED
 66
     1
 62
     2
  6
DASHDOT2
  0
VERTEX
  8
BDRY_TWP_LOT-SURVEYED
 10
508352.00
 20
1140552.00
  0
VERTEX
  8
BDRY_TWP_LOT-SURVEYED
 10
509159.00
 20
1140558.00
  0
SEQEND
  8
BDRY_TWP_LOT-SURVEYED
  0
POLYLINE
  8
BDRY_TWP_LOT-SURVEYED
 66
     1
 62
     2
  6
DASHDOT2
  0
VERTEX
  8
BDRY_TWP_LOT-SURVEYED
 10
508342.00
 20
1140554.00
  0
VERTEX
  8
BDRY_TWP_LOT-SURVEYED
 10
508352.00
 20
1140552.00
  0
SEQEND
  8
BDRY_TWP_LOT-SURVEYED
  0
POLYLINE
  8
BDRY_TWP_LOT_UNSURVEYED
 66
     1
 62
     2
  6
DIVIDE
  0
VERTEX
  8
BDRY_TWP_LOT_UNSURVEYED
 10
505126.38
 20
1140862.50
  0
VERTEX
  8
BDRY_TWP_LOT_UNSURVEYED
 10
505132.00
 20
1140551.00
  0
SEQEND
  8
BDRY_TWP_LOT_UNSURVEYED
  0
POLYLINE
  8
BDRY_TWP_LOT-SURVEYED
 66
     1
 62
     2
  6
DASHDOT2
  0
VERTEX
  8
BDRY_TWP_LOT-SURVEYED
 10
504245.00
 20
1140552.00
  0
VERTEX
  8
BDRY_TWP_LOT-SURVEYED
 10
505132.00
 20
1140551.00
  0
SEQEND
  8
BDRY_TWP_LOT-SURVEYED
  0
POLYLINE
  8
BDRY_TWP_LOT-SURVEYED
 66
     1
 62
     2
  6
DASHDOT2
  0
VERTEX
  8
BDRY_TWP_LOT-SURVEYED
 10
505132.00
 20
1140551.00
  0
VERTEX
  8
BDRY_TWP_LOT-SURVEYED
 10
505145.00
 20
1140551.00
  0
SEQEND
  8
BDRY_TWP_LOT-SURVEYED
  0
POLYLINE
  8
BDRY_TWP_LOT-SURVEYED
 66
     1
 62
     2
  6
DASHDOT2
  0
VERTEX
  8
BDRY_TWP_LOT-SURVEYED
 10
505145.00
 20
1140551.00
  0
VERTEX
  8
BDRY_TWP_LOT-SURVEYED
 10
505807.00
 20
1140548.00
  0
SEQEND
  8
BDRY_TWP_LOT-SURVEYED
  0
POLYLINE
  8
BDRY_TWP_LOT-SURVEYED
 66
     1
 62
     2
  6
DASHDOT2
  0
VERTEX
  8
BDRY_TWP_LOT-SURVEYED
 10
507547.00
 20
1140546.00
  0
VERTEX
  8
BDRY_TWP_LOT-SURVEYED
 10
508342.00
 20
1140554.00
  0
SEQEND
  8
BDRY_TWP_LOT-SURVEYED
  0
POLYLINE
  8
BDRY_TWP_LOT-SURVEYED
 66
     1
 62
     2
  6
DASHDOT2
  0
VERTEX
  8
BDRY_TWP_LOT-SURVEYED
 10
507544.97
 20
1140853.75
  0
VERTEX
  8
BDRY_TWP_LOT-SURVEYED
 10
507547.00
 20
1140546.00
  0
SEQEND
  8
BDRY_TWP_LOT-SURVEYED
  0
POLYLINE
  8
BDRY_TWP_LOT-SURVEYED
 66
     1
 62
     2
  6
DASHDOT2
  0
VERTEX
  8
BDRY_TWP_LOT-SURVEYED
 10
506734.00
 20
1140548.00
  0
VERTEX
  8
BDRY_TWP_LOT-SURVEYED
 10
507547.00
 20
1140546.00
  0
SEQEND
  8
BDRY_TWP_LOT-SURVEYED
  0
POLYLINE
  8
VIRTUAL_SEGMENT_LOT
 66
     1
 62
    14
  6
CONTINUOUS
  0
VERTEX
  8
VIRTUAL_SEGMENT_LOT
 10
505933.03
 20
1140522.50
  0
VERTEX
  8
VIRTUAL_SEGMENT_LOT
 10
505935.63
 20
1140460.88
  0
SEQEND
  8
VIRTUAL_SEGMENT_LOT
  0
POLYLINE
  8
BDRY_TWP_LOT_UNSURVEYED
 66
     1
 62
     2
  6
DIVIDE
  0
VERTEX
  8
BDRY_TWP_LOT_UNSURVEYED
 10
502387.00
 20
1140635.00
  0
VERTEX
  8
BDRY_TWP_LOT_UNSURVEYED
 10
502381.00
 20
1140406.00
  0
SEQEND
  8
BDRY_TWP_LOT_UNSURVEYED
  0
POLYLINE
  8
VIRTUAL_SEGMENT_LOT
 66
     1
 62
    14
  6
CONTINUOUS
  0
VERTEX
  8
VIRTUAL_SEGMENT_LOT
 10
502381.00
 20
1140406.00
  0
VERTEX
  8
VIRTUAL_SEGMENT_LOT
 10
502389.00
 20
1140417.00
  0
VERTEX
  8
VIRTUAL_SEGMENT_LOT
 10
502401.00
 20
1140409.00
  0
VERTEX
  8
VIRTUAL_SEGMENT_LOT
 10
502412.00
 20
1140410.00
  0
VERTEX
  8
VIRTUAL_SEGMENT_LOT
 10
502431.00
 20
1140422.00
  0
VERTEX
  8
VIRTUAL_SEGMENT_LOT
 10
502448.00
 20
1140431.00
  0
VERTEX
  8
VIRTUAL_SEGMENT_LOT
 10
502450.00
 20
1140431.00
  0
VERTEX
  8
VIRTUAL_SEGMENT_LOT
 10
502460.00
 20
1140422.00
  0
VERTEX
  8
VIRTUAL_SEGMENT_LOT
 10
502461.00
 20
1140406.00
  0
VERTEX
  8
VIRTUAL_SEGMENT_LOT
 10
502464.00
 20
1140387.00
  0
VERTEX
  8
VIRTUAL_SEGMENT_LOT
 10
502468.00
 20
1140376.00
  0
VERTEX
  8
VIRTUAL_SEGMENT_LOT
 10
502484.00
 20
1140370.00
  0
VERTEX
  8
VIRTUAL_SEGMENT_LOT
 10
502507.00
 20
1140367.00
  0
VERTEX
  8
VIRTUAL_SEGMENT_LOT
 10
502519.00
 20
1140369.00
  0
VERTEX
  8
VIRTUAL_SEGMENT_LOT
 10
502532.00
 20
1140376.00
  0
VERTEX
  8
VIRTUAL_SEGMENT_LOT
 10
502540.00
 20
1140381.00
  0
VERTEX
  8
VIRTUAL_SEGMENT_LOT
 10
502549.00
 20
1140375.00
  0
VERTEX
  8
VIRTUAL_SEGMENT_LOT
 10
502557.00
 20
1140367.00
  0
VERTEX
  8
VIRTUAL_SEGMENT_LOT
 10
502564.00
 20
1140369.00
  0
VERTEX
  8
VIRTUAL_SEGMENT_LOT
 10
502571.00
 20
1140379.00
  0
VERTEX
  8
VIRTUAL_SEGMENT_LOT
 10
502585.00
 20
1140386.00
  0
VERTEX
  8
VIRTUAL_SEGMENT_LOT
 10
502595.00
 20
1140382.00
  0
VERTEX
  8
VIRTUAL_SEGMENT_LOT
 10
502606.00
 20
1140380.00
  0
VERTEX
  8
VIRTUAL_SEGMENT_LOT
 10
502618.00
 20
1140391.00
  0
VERTEX
  8
VIRTUAL_SEGMENT_LOT
 10
502627.00
 20
1140403.00
  0
VERTEX
  8
VIRTUAL_SEGMENT_LOT
 10
502641.00
 20
1140411.00
  0
VERTEX
  8
VIRTUAL_SEGMENT_LOT
 10
502659.00
 20
1140412.00
  0
VERTEX
  8
VIRTUAL_SEGMENT_LOT
 10
502687.00
 20
1140404.00
  0
VERTEX
  8
VIRTUAL_SEGMENT_LOT
 10
502712.00
 20
1140394.00
  0
VERTEX
  8
VIRTUAL_SEGMENT_LOT
 10
502730.00
 20
1140392.00
  0
VERTEX
  8
VIRTUAL_SEGMENT_LOT
 10
502754.00
 20
1140395.00
  0
VERTEX
  8
VIRTUAL_SEGMENT_LOT
 10
502784.00
 20
1140396.00
  0
VERTEX
  8
VIRTUAL_SEGMENT_LOT
 10
502822.00
 20
1140386.00
  0
VERTEX
  8
VIRTUAL_SEGMENT_LOT
 10
502856.00
 20
1140372.00
  0
VERTEX
  8
VIRTUAL_SEGMENT_LOT
 10
502890.00
 20
1140359.00
  0
VERTEX
  8
VIRTUAL_SEGMENT_LOT
 10
502935.00
 20
1140342.00
  0
VERTEX
  8
VIRTUAL_SEGMENT_LOT
 10
502978.00
 20
1140329.00
  0
VERTEX
  8
VIRTUAL_SEGMENT_LOT
 10
503013.00
 20
1140320.00
  0
VERTEX
  8
VIRTUAL_SEGMENT_LOT
 10
503059.00
 20
1140314.00
  0
VERTEX
  8
VIRTUAL_SEGMENT_LOT
 10
503111.00
 20
1140310.00
  0
VERTEX
  8
VIRTUAL_SEGMENT_LOT
 10
503158.00
 20
1140308.00
  0
VERTEX
  8
VIRTUAL_SEGMENT_LOT
 10
503180.00
 20
1140307.00
  0
SEQEND
  8
VIRTUAL_SEGMENT_LOT
  0
POLYLINE
  8
VIRTUAL_SEGMENT_LOT
 66
     1
 62
    14
  6
CONTINUOUS
  0
VERTEX
  8
VIRTUAL_SEGMENT_LOT
 10
503180.00
 20
1140307.00
  0
VERTEX
  8
VIRTUAL_SEGMENT_LOT
 10
503196.00
 20
1140306.00
  0
VERTEX
  8
VIRTUAL_SEGMENT_LOT
 10
503236.00
 20
1140312.00
  0
VERTEX
  8
VIRTUAL_SEGMENT_LOT
 10
503268.00
 20
1140327.00
  0
VERTEX
  8
VIRTUAL_SEGMENT_LOT
 10
503282.00
 20
1140340.00
  0
VERTEX
  8
VIRTUAL_SEGMENT_LOT
 10
503304.00
 20
1140350.00
  0
VERTEX
  8
VIRTUAL_SEGMENT_LOT
 10
503318.00
 20
1140370.00
  0
VERTEX
  8
VIRTUAL_SEGMENT_LOT
 10
503338.00
 20
1140394.00
  0
VERTEX
  8
VIRTUAL_SEGMENT_LOT
 10
503359.00
 20
1140395.00
  0
VERTEX
  8
VIRTUAL_SEGMENT_LOT
 10
503372.00
 20
1140401.00
  0
VERTEX
  8
VIRTUAL_SEGMENT_LOT
 10
503389.00
 20
1140424.00
  0
VERTEX
  8
VIRTUAL_SEGMENT_LOT
 10
503411.00
 20
1140450.00
  0
VERTEX
  8
VIRTUAL_SEGMENT_LOT
 10
503434.00
 20
1140474.00
  0
VERTEX
  8
VIRTUAL_SEGMENT_LOT
 10
503443.00
 20
1140497.00
  0
VERTEX
  8
VIRTUAL_SEGMENT_LOT
 10
503451.00
 20
1140521.00
  0
VERTEX
  8
VIRTUAL_SEGMENT_LOT
 10
503454.00
 20
1140555.00
  0
VERTEX
  8
VIRTUAL_SEGMENT_LOT
 10
503456.00
 20
1140588.00
  0
VERTEX
  8
VIRTUAL_SEGMENT_LOT
 10
503469.00
 20
1140609.00
  0
VERTEX
  8
VIRTUAL_SEGMENT_LOT
 10
503489.00
 20
1140630.00
  0
VERTEX
  8
VIRTUAL_SEGMENT_LOT
 10
503501.81
 20
1140638.00
  0
SEQEND
  8
VIRTUAL_SEGMENT_LOT
  0
POLYLINE
  8
VIRTUAL_SEGMENT_LOT
 66
     1
 62
    14
  6
CONTINUOUS
  0
VERTEX
  8
VIRTUAL_SEGMENT_LOT
 10
506743.00
 20
1140100.00
  0
VERTEX
  8
VIRTUAL_SEGMENT_LOT
 10
506739.00
 20
1140180.00
  0
SEQEND
  8
VIRTUAL_SEGMENT_LOT
  0
POLYLINE
  8
BDRY_TWP_LOT_UNSURVEYED
 66
     1
 62
     2
  6
DIVIDE
  0
VERTEX
  8
BDRY_TWP_LOT_UNSURVEYED
 10
505145.00
 20
1140551.00
  0
VERTEX
  8
BDRY_TWP_LOT_UNSURVEYED
 10
505131.00
 20
1140097.38
  0
SEQEND
  8
BDRY_TWP_LOT_UNSURVEYED
  0
POLYLINE
  8
BDRY_TWP_LOT-SURVEYED
 66
     1
 62
     2
  6
DASHDOT2
  0
VERTEX
  8
BDRY_TWP_LOT-SURVEYED
 10
500738.19
 20
1140566.75
  0
VERTEX
  8
BDRY_TWP_LOT-SURVEYED
 10
500741.00
 20
1140000.00
  0
SEQEND
  8
BDRY_TWP_LOT-SURVEYED
  0
POLYLINE
  8
BDRY_TWP_LOT_UNSURVEYED
 66
     1
 62
     2
  6
DIVIDE
  0
VERTEX
  8
BDRY_TWP_LOT_UNSURVEYED
 10
501553.00
 20
1140633.00
  0
VERTEX
  8
BDRY_TWP_LOT_UNSURVEYED
 10
501558.00
 20
1140000.00
  0
SEQEND
  8
BDRY_TWP_LOT_UNSURVEYED
  0
POLYLINE
  8
VIRTUAL_SEGMENT_LOT
 66
     1
 62
    14
  6
CONTINUOUS
  0
VERTEX
  8
VIRTUAL_SEGMENT_LOT
 10
502311.00
 20
1140000.00
  0
VERTEX
  8
VIRTUAL_SEGMENT_LOT
 10
502325.00
 20
1140011.00
  0
VERTEX
  8
VIRTUAL_SEGMENT_LOT
 10
502333.00
 20
1140020.00
  0
VERTEX
  8
VIRTUAL_SEGMENT_LOT
 10
502325.00
 20
1140032.00
  0
VERTEX
  8
VIRTUAL_SEGMENT_LOT
 10
502321.00
 20
1140045.00
  0
VERTEX
  8
VIRTUAL_SEGMENT_LOT
 10
502326.00
 20
1140060.00
  0
VERTEX
  8
VIRTUAL_SEGMENT_LOT
 10
502341.00
 20
1140063.00
  0
VERTEX
  8
VIRTUAL_SEGMENT_LOT
 10
502351.00
 20
1140068.00
  0
VERTEX
  8
VIRTUAL_SEGMENT_LOT
 10
502354.00
 20
1140078.00
  0
VERTEX
  8
VIRTUAL_SEGMENT_LOT
 10
502353.00
 20
1140091.00
  0
VERTEX
  8
VIRTUAL_SEGMENT_LOT
 10
502341.00
 20
1140109.00
  0
VERTEX
  8
VIRTUAL_SEGMENT_LOT
 10
502325.00
 20
1140121.00
  0
VERTEX
  8
VIRTUAL_SEGMENT_LOT
 10
502303.00
 20
1140127.00
  0
VERTEX
  8
VIRTUAL_SEGMENT_LOT
 10
502282.00
 20
1140132.00
  0
VERTEX
  8
VIRTUAL_SEGMENT_LOT
 10
502266.00
 20
1140144.00
  0
VERTEX
  8
VIRTUAL_SEGMENT_LOT
 10
502253.00
 20
1140157.00
  0
VERTEX
  8
VIRTUAL_SEGMENT_LOT
 10
502228.00
 20
1140161.00
  0
VERTEX
  8
VIRTUAL_SEGMENT_LOT
 10
502198.00
 20
1140166.00
  0
VERTEX
  8
VIRTUAL_SEGMENT_LOT
 10
502172.00
 20
1140170.00
  0
VERTEX
  8
VIRTUAL_SEGMENT_LOT
 10
502154.00
 20
1140182.00
  0
VERTEX
  8
VIRTUAL_SEGMENT_LOT
 10
502144.00
 20
1140193.00
  0
VERTEX
  8
VIRTUAL_SEGMENT_LOT
 10
502144.00
 20
1140206.00
  0
VERTEX
  8
VIRTUAL_SEGMENT_LOT
 10
502158.00
 20
1140221.00
  0
VERTEX
  8
VIRTUAL_SEGMENT_LOT
 10
502167.00
 20
1140234.00
  0
VERTEX
  8
VIRTUAL_SEGMENT_LOT
 10
502174.00
 20
1140246.00
  0
VERTEX
  8
VIRTUAL_SEGMENT_LOT
 10
502181.00
 20
1140267.00
  0
VERTEX
  8
VIRTUAL_SEGMENT_LOT
 10
502186.00
 20
1140279.00
  0
VERTEX
  8
VIRTUAL_SEGMENT_LOT
 10
502199.00
 20
1140288.00
  0
VERTEX
  8
VIRTUAL_SEGMENT_LOT
 10
502209.00
 20
1140293.00
  0
VERTEX
  8
VIRTUAL_SEGMENT_LOT
 10
502225.00
 20
1140291.00
  0
VERTEX
  8
VIRTUAL_SEGMENT_LOT
 10
502238.00
 20
1140295.00
  0
VERTEX
  8
VIRTUAL_SEGMENT_LOT
 10
502249.00
 20
1140313.00
  0
VERTEX
  8
VIRTUAL_SEGMENT_LOT
 10
502270.00
 20
1140329.00
  0
VERTEX
  8
VIRTUAL_SEGMENT_LOT
 10
502296.00
 20
1140360.00
  0
VERTEX
  8
VIRTUAL_SEGMENT_LOT
 10
502319.00
 20
1140384.00
  0
VERTEX
  8
VIRTUAL_SEGMENT_LOT
 10
502331.00
 20
1140393.00
  0
VERTEX
  8
VIRTUAL_SEGMENT_LOT
 10
502343.00
 20
1140396.00
  0
VERTEX
  8
VIRTUAL_SEGMENT_LOT
 10
502362.00
 20
1140395.00
  0
VERTEX
  8
VIRTUAL_SEGMENT_LOT
 10
502374.00
 20
1140399.00
  0
VERTEX
  8
VIRTUAL_SEGMENT_LOT
 10
502377.00
 20
1140401.00
  0
VERTEX
  8
VIRTUAL_SEGMENT_LOT
 10
502381.00
 20
1140406.00
  0
SEQEND
  8
VIRTUAL_SEGMENT_LOT
  0
POLYLINE
  8
VIRTUAL_SEGMENT_LOT
 66
     1
 62
    14
  6
CONTINUOUS
  0
VERTEX
  8
VIRTUAL_SEGMENT_LOT
 10
504190.00
 20
1140640.00
  0
VERTEX
  8
VIRTUAL_SEGMENT_LOT
 10
504192.00
 20
1140625.00
  0
VERTEX
  8
VIRTUAL_SEGMENT_LOT
 10
504197.00
 20
1140586.00
  0
VERTEX
  8
VIRTUAL_SEGMENT_LOT
 10
504207.00
 20
1140554.00
  0
VERTEX
  8
VIRTUAL_SEGMENT_LOT
 10
504203.00
 20
1140542.00
  0
VERTEX
  8
VIRTUAL_SEGMENT_LOT
 10
504197.00
 20
1140526.00
  0
VERTEX
  8
VIRTUAL_SEGMENT_LOT
 10
504197.00
 20
1140505.00
  0
VERTEX
  8
VIRTUAL_SEGMENT_LOT
 10
504201.00
 20
1140474.00
  0
VERTEX
  8
VIRTUAL_SEGMENT_LOT
 10
504199.00
 20
1140415.00
  0
VERTEX
  8
VIRTUAL_SEGMENT_LOT
 10
504184.00
 20
1140380.00
  0
VERTEX
  8
VIRTUAL_SEGMENT_LOT
 10
504163.00
 20
1140355.00
  0
VERTEX
  8
VIRTUAL_SEGMENT_LOT
 10
504130.00
 20
1140334.00
  0
VERTEX
  8
VIRTUAL_SEGMENT_LOT
 10
504091.00
 20
1140311.00
  0
VERTEX
  8
VIRTUAL_SEGMENT_LOT
 10
504078.00
 20
1140299.00
  0
VERTEX
  8
VIRTUAL_SEGMENT_LOT
 10
504059.00
 20
1140278.00
  0
VERTEX
  8
VIRTUAL_SEGMENT_LOT
 10
504034.00
 20
1140265.00
  0
VERTEX
  8
VIRTUAL_SEGMENT_LOT
 10
504003.00
 20
1140249.00
  0
VERTEX
  8
VIRTUAL_SEGMENT_LOT
 10
503980.00
 20
1140233.00
  0
VERTEX
  8
VIRTUAL_SEGMENT_LOT
 10
503964.00
 20
1140208.00
  0
VERTEX
  8
VIRTUAL_SEGMENT_LOT
 10
503944.00
 20
1140180.00
  0
VERTEX
  8
VIRTUAL_SEGMENT_LOT
 10
503920.00
 20
1140146.00
  0
VERTEX
  8
VIRTUAL_SEGMENT_LOT
 10
503887.00
 20
1140117.00
  0
VERTEX
  8
VIRTUAL_SEGMENT_LOT
 10
503851.00
 20
1140098.00
  0
VERTEX
  8
VIRTUAL_SEGMENT_LOT
 10
503812.00
 20
1140084.00
  0
VERTEX
  8
VIRTUAL_SEGMENT_LOT
 10
503791.00
 20
1140076.00
  0
VERTEX
  8
VIRTUAL_SEGMENT_LOT
 10
503767.00
 20
1140076.00
  0
VERTEX
  8
VIRTUAL_SEGMENT_LOT
 10
503751.00
 20
1140067.00
  0
VERTEX
  8
VIRTUAL_SEGMENT_LOT
 10
503742.00
 20
1140053.00
  0
VERTEX
  8
VIRTUAL_SEGMENT_LOT
 10
503733.00
 20
1140039.00
  0
VERTEX
  8
VIRTUAL_SEGMENT_LOT
 10
503715.00
 20
1140030.00
  0
VERTEX
  8
VIRTUAL_SEGMENT_LOT
 10
503693.00
 20
1140023.00
  0
VERTEX
  8
VIRTUAL_SEGMENT_LOT
 10
503686.00
 20
1140024.00
  0
VERTEX
  8
VIRTUAL_SEGMENT_LOT
 10
503667.00
 20
1140031.00
  0
VERTEX
  8
VIRTUAL_SEGMENT_LOT
 10
503636.00
 20
1140019.00
  0
VERTEX
  8
VIRTUAL_SEGMENT_LOT
 10
503607.00
 20
1140016.00
  0
VERTEX
  8
VIRTUAL_SEGMENT_LOT
 10
503587.00
 20
1140017.00
  0
VERTEX
  8
VIRTUAL_SEGMENT_LOT
 10
503571.00
 20
1140027.00
  0
VERTEX
  8
VIRTUAL_SEGMENT_LOT
 10
503549.00
 20
1140042.00
  0
VERTEX
  8
VIRTUAL_SEGMENT_LOT
 10
503526.00
 20
1140060.00
  0
VERTEX
  8
VIRTUAL_SEGMENT_LOT
 10
503512.00
 20
1140068.00
  0
VERTEX
  8
VIRTUAL_SEGMENT_LOT
 10
503499.00
 20
1140077.00
  0
VERTEX
  8
VIRTUAL_SEGMENT_LOT
 10
503491.00
 20
1140093.00
  0
VERTEX
  8
VIRTUAL_SEGMENT_LOT
 10
503485.00
 20
1140106.00
  0
VERTEX
  8
VIRTUAL_SEGMENT_LOT
 10
503475.00
 20
1140112.00
  0
VERTEX
  8
VIRTUAL_SEGMENT_LOT
 10
503460.00
 20
1140108.00
  0
VERTEX
  8
VIRTUAL_SEGMENT_LOT
 10
503442.00
 20
1140089.00
  0
VERTEX
  8
VIRTUAL_SEGMENT_LOT
 10
503427.00
 20
1140071.00
  0
VERTEX
  8
VIRTUAL_SEGMENT_LOT
 10
503414.00
 20
1140059.00
  0
VERTEX
  8
VIRTUAL_SEGMENT_LOT
 10
503393.00
 20
1140042.00
  0
VERTEX
  8
VIRTUAL_SEGMENT_LOT
 10
503370.00
 20
1140029.00
  0
VERTEX
  8
VIRTUAL_SEGMENT_LOT
 10
503346.00
 20
1140016.00
  0
VERTEX
  8
VIRTUAL_SEGMENT_LOT
 10
503329.00
 20
1140000.00
  0
SEQEND
  8
VIRTUAL_SEGMENT_LOT
  0
POLYLINE
  8
BDRY_TWP
 66
     1
 62
     4
  6
CONTINUOUS
  0
VERTEX
  8
BDRY_TWP
 10
504245.00
 20
1140552.00
  0
VERTEX
  8
BDRY_TWP
 10
504228.00
 20
1140149.00
  0
VERTEX
  8
BDRY_TWP
 10
504215.00
 20
1140000.00
  0
SEQEND
  8
BDRY_TWP
  0
POLYLINE
  8
VIRTUAL_SEGMENT_LOT
 66
     1
 62
    14
  6
CONTINUOUS
  0
VERTEX
  8
VIRTUAL_SEGMENT_LOT
 10
504645.00
 20
1140000.00
  0
VERTEX
  8
VIRTUAL_SEGMENT_LOT
 10
504647.53
 20
1140003.13
  0
VERTEX
  8
VIRTUAL_SEGMENT_LOT
 10
504656.16
 20
1140004.88
  0
VERTEX
  8
VIRTUAL_SEGMENT_LOT
 10
504665.41
 20
1140003.75
  0
VERTEX
  8
VIRTUAL_SEGMENT_LOT
 10
504670.75
 20
1140001.38
  0
VERTEX
  8
VIRTUAL_SEGMENT_LOT
 10
504673.00
 20
1140000.00
  0
SEQEND
  8
VIRTUAL_SEGMENT_LOT
  0
POLYLINE
  8
VIRTUAL_SEGMENT_LOT
 66
     1
 62
    14
  6
CONTINUOUS
  0
VERTEX
  8
VIRTUAL_SEGMENT_LOT
 10
505046.00
 20
1140000.00
  0
VERTEX
  8
VIRTUAL_SEGMENT_LOT
 10
505049.78
 20
1140016.25
  0
VERTEX
  8
VIRTUAL_SEGMENT_LOT
 10
505103.38
 20
1140071.88
  0
VERTEX
  8
VIRTUAL_SEGMENT_LOT
 10
505130.19
 20
1140096.63
  0
VERTEX
  8
VIRTUAL_SEGMENT_LOT
 10
505131.00
 20
1140097.38
  0
SEQEND
  8
VIRTUAL_SEGMENT_LOT
  0
POLYLINE
  8
VIRTUAL_SEGMENT_LOT
 66
     1
 62
    14
  6
CONTINUOUS
  0
VERTEX
  8
VIRTUAL_SEGMENT_LOT
 10
505131.00
 20
1140097.38
  0
VERTEX
  8
VIRTUAL_SEGMENT_LOT
 10
505138.66
 20
1140105.13
  0
VERTEX
  8
VIRTUAL_SEGMENT_LOT
 10
505160.53
 20
1140119.13
  0
VERTEX
  8
VIRTUAL_SEGMENT_LOT
 10
505182.38
 20
1140133.25
  0
VERTEX
  8
VIRTUAL_SEGMENT_LOT
 10
505209.91
 20
1140150.88
  0
VERTEX
  8
VIRTUAL_SEGMENT_LOT
 10
505219.78
 20
1140158.63
  0
VERTEX
  8
VIRTUAL_SEGMENT_LOT
 10
505245.16
 20
1140170.00
  0
VERTEX
  8
VIRTUAL_SEGMENT_LOT
 10
505268.44
 20
1140175.63
  0
VERTEX
  8
VIRTUAL_SEGMENT_LOT
 10
505306.53
 20
1140165.75
  0
VERTEX
  8
VIRTUAL_SEGMENT_LOT
 10
505334.75
 20
1140141.75
  0
VERTEX
  8
VIRTUAL_SEGMENT_LOT
 10
505334.03
 20
1140084.63
  0
VERTEX
  8
VIRTUAL_SEGMENT_LOT
 10
505328.41
 20
1140045.13
  0
VERTEX
  8
VIRTUAL_SEGMENT_LOT
 10
505321.34
 20
1140026.75
  0
VERTEX
  8
VIRTUAL_SEGMENT_LOT
 10
505303.00
 20
1140000.00
  0
SEQEND
  8
VIRTUAL_SEGMENT_LOT
  0
POLYLINE
  8
BDRY_TWP_LOT-SURVEYED
 66
     1
 62
     2
  6
DASHDOT2
  0
VERTEX
  8
BDRY_TWP_LOT-SURVEYED
 10
505935.63
 20
1140460.88
  0
VERTEX
  8
BDRY_TWP_LOT-SURVEYED
 10
505953.00
 20
1140000.00
  0
SEQEND
  8
BDRY_TWP_LOT-SURVEYED
  0
POLYLINE
  8
BDRY_TWP_LOT_UNSURVEYED
 66
     1
 62
     2
  6
DIVIDE
  0
VERTEX
  8
BDRY_TWP_LOT_UNSURVEYED
 10
506743.00
 20
1140100.00
  0
VERTEX
  8
BDRY_TWP_LOT_UNSURVEYED
 10
506744.00
 20
1140000.00
  0
SEQEND
  8
BDRY_TWP_LOT_UNSURVEYED
  0
POLYLINE
  8
BDRY_TWP_LOT-SURVEYED
 66
     1
 62
     2
  6
DASHDOT2
  0
VERTEX
  8
BDRY_TWP_LOT-SURVEYED
 10
507547.00
 20
1140546.00
  0
VERTEX
  8
BDRY_TWP_LOT-SURVEYED
 10
507546.00
 20
1140000.00
  0
SEQEND
  8
BDRY_TWP_LOT-SURVEYED
  0
POLYLINE
  8
BDRY_TWP_LOT_UNSURVEYED
 66
     1
 62
     2
  6
DIVIDE
  0
VERTEX
  8
BDRY_TWP_LOT_UNSURVEYED
 10
508352.00
 20
1140552.00
  0
VERTEX
  8
BDRY_TWP_LOT_UNSURVEYED
 10
508338.00
 20
1140000.00
  0
SEQEND
  8
BDRY_TWP_LOT_UNSURVEYED
  0
POLYLINE
  8
BDRY_TWP_LOT-SURVEYED
 66
     1
 62
     2
  6
DASHDOT2
  0
VERTEX
  8
BDRY_TWP_LOT-SURVEYED
 10
509159.00
 20
1140558.00
  0
VERTEX
  8
BDRY_TWP_LOT-SURVEYED
 10
509161.00
 20
1140000.00
  0
SEQEND
  8
BDRY_TWP_LOT-SURVEYED
  0
ENDSEC
  0
EOF
