  0
SECTION
  2
HEADER
  9
$DWGCODEPAGE
  3
iso8859-1
  9
$EXTMIN
 10
510289.00
 20
1146505.00
  9
$EXTMAX
 10
516649.00
 20
1148931.00
  9
$LUPREC
 70
    14
  0
ENDSEC
  0
SECTION
  2
TABLES
  0
ENDSEC
  0
SECTION
  2
BLOCKS
  0
ENDSEC
  0
SECTION
  2
ENTITIES
  0
POLYLINE
  8
BUILDING_TO_SCALE
 66
     1
 62
     4
  6
CONTINUOUS
  0
VERTEX
  8
BUILDING_TO_SCALE
 10
510289.00
 20
1148912.00
  0
VERTEX
  8
BUILDING_TO_SCALE
 10
510360.00
 20
1148907.00
  0
VERTEX
  8
BUILDING_TO_SCALE
 10
510360.00
 20
1148918.00
  0
VERTEX
  8
BUILDING_TO_SCALE
 10
510334.00
 20
1148921.00
  0
VERTEX
  8
BUILDING_TO_SCALE
 10
510335.00
 20
1148930.00
  0
VERTEX
  8
BUILDING_TO_SCALE
 10
510317.00
 20
1148931.00
  0
VERTEX
  8
BUILDING_TO_SCALE
 10
510316.00
 20
1148921.00
  0
VERTEX
  8
BUILDING_TO_SCALE
 10
510289.00
 20
1148923.00
  0
VERTEX
  8
BUILDING_TO_SCALE
 10
510289.00
 20
1148912.00
  0
SEQEND
  8
BUILDING_TO_SCALE
  0
POLYLINE
  8
BUILDING_TO_SCALE
 66
     1
 62
     4
  6
CONTINUOUS
  0
VERTEX
  8
BUILDING_TO_SCALE
 10
511523.00
 20
1148798.00
  0
VERTEX
  8
BUILDING_TO_SCALE
 10
511535.00
 20
1148798.00
  0
VERTEX
  8
BUILDING_TO_SCALE
 10
511535.00
 20
1148807.00
  0
VERTEX
  8
BUILDING_TO_SCALE
 10
511550.00
 20
1148805.00
  0
VERTEX
  8
BUILDING_TO_SCALE
 10
511549.00
 20
1148763.00
  0
VERTEX
  8
BUILDING_TO_SCALE
 10
511568.00
 20
1148764.00
  0
VERTEX
  8
BUILDING_TO_SCALE
 10
511568.00
 20
1148712.00
  0
VERTEX
  8
BUILDING_TO_SCALE
 10
511554.00
 20
1148712.00
  0
VERTEX
  8
BUILDING_TO_SCALE
 10
511553.00
 20
1148682.00
  0
VERTEX
  8
BUILDING_TO_SCALE
 10
511525.00
 20
1148683.00
  0
VERTEX
  8
BUILDING_TO_SCALE
 10
511524.00
 20
1148724.00
  0
VERTEX
  8
BUILDING_TO_SCALE
 10
511534.00
 20
1148724.00
  0
VERTEX
  8
BUILDING_TO_SCALE
 10
511533.00
 20
1148752.00
  0
VERTEX
  8
BUILDING_TO_SCALE
 10
511522.00
 20
1148750.00
  0
VERTEX
  8
BUILDING_TO_SCALE
 10
511523.00
 20
1148798.00
  0
SEQEND
  8
BUILDING_TO_SCALE
  0
POLYLINE
  8
BUILDING_TO_SCALE
 66
     1
 62
     4
  6
CONTINUOUS
  0
VERTEX
  8
BUILDING_TO_SCALE
 10
511467.00
 20
1148803.00
  0
VERTEX
  8
BUILDING_TO_SCALE
 10
511489.00
 20
1148803.00
  0
VERTEX
  8
BUILDING_TO_SCALE
 10
511487.00
 20
1148787.00
  0
VERTEX
  8
BUILDING_TO_SCALE
 10
511496.00
 20
1148788.00
  0
VERTEX
  8
BUILDING_TO_SCALE
 10
511495.00
 20
1148756.00
  0
VERTEX
  8
BUILDING_TO_SCALE
 10
511485.00
 20
1148756.00
  0
VERTEX
  8
BUILDING_TO_SCALE
 10
511482.00
 20
1148728.00
  0
VERTEX
  8
BUILDING_TO_SCALE
 10
511494.00
 20
1148729.00
  0
VERTEX
  8
BUILDING_TO_SCALE
 10
511492.00
 20
1148681.00
  0
VERTEX
  8
BUILDING_TO_SCALE
 10
511475.00
 20
1148682.00
  0
VERTEX
  8
BUILDING_TO_SCALE
 10
511476.00
 20
1148710.00
  0
VERTEX
  8
BUILDING_TO_SCALE
 10
511449.00
 20
1148710.00
  0
VERTEX
  8
BUILDING_TO_SCALE
 10
511449.00
 20
1148766.00
  0
VERTEX
  8
BUILDING_TO_SCALE
 10
511468.00
 20
1148765.00
  0
VERTEX
  8
BUILDING_TO_SCALE
 10
511467.00
 20
1148803.00
  0
SEQEND
  8
BUILDING_TO_SCALE
  0
POLYLINE
  8
BUILDING_TO_SCALE
 66
     1
 62
     4
  6
CONTINUOUS
  0
VERTEX
  8
BUILDING_TO_SCALE
 10
511527.00
 20
1148648.00
  0
VERTEX
  8
BUILDING_TO_SCALE
 10
511695.00
 20
1148649.00
  0
VERTEX
  8
BUILDING_TO_SCALE
 10
511693.00
 20
1148619.00
  0
VERTEX
  8
BUILDING_TO_SCALE
 10
511528.00
 20
1148618.00
  0
VERTEX
  8
BUILDING_TO_SCALE
 10
511527.00
 20
1148648.00
  0
SEQEND
  8
BUILDING_TO_SCALE
  0
POLYLINE
  8
BUILDING_TO_SCALE
 66
     1
 62
     4
  6
CONTINUOUS
  0
VERTEX
  8
BUILDING_TO_SCALE
 10
511524.00
 20
1148605.00
  0
VERTEX
  8
BUILDING_TO_SCALE
 10
511683.00
 20
1148604.00
  0
VERTEX
  8
BUILDING_TO_SCALE
 10
511681.00
 20
1148580.00
  0
VERTEX
  8
BUILDING_TO_SCALE
 10
511525.00
 20
1148580.00
  0
VERTEX
  8
BUILDING_TO_SCALE
 10
511524.00
 20
1148605.00
  0
SEQEND
  8
BUILDING_TO_SCALE
  0
POLYLINE
  8
BUILDING_TO_SCALE
 66
     1
 62
     4
  6
CONTINUOUS
  0
VERTEX
  8
BUILDING_TO_SCALE
 10
511935.00
 20
1148593.00
  0
VERTEX
  8
BUILDING_TO_SCALE
 10
511989.00
 20
1148591.00
  0
VERTEX
  8
BUILDING_TO_SCALE
 10
511988.00
 20
1148568.00
  0
VERTEX
  8
BUILDING_TO_SCALE
 10
511932.00
 20
1148567.00
  0
VERTEX
  8
BUILDING_TO_SCALE
 10
511935.00
 20
1148593.00
  0
SEQEND
  8
BUILDING_TO_SCALE
  0
POLYLINE
  8
BUILDING_TO_SCALE
 66
     1
 62
     4
  6
CONTINUOUS
  0
VERTEX
  8
BUILDING_TO_SCALE
 10
511718.00
 20
1148591.00
  0
VERTEX
  8
BUILDING_TO_SCALE
 10
511907.00
 20
1148587.00
  0
VERTEX
  8
BUILDING_TO_SCALE
 10
511904.00
 20
1148563.00
  0
VERTEX
  8
BUILDING_TO_SCALE
 10
511719.00
 20
1148563.00
  0
VERTEX
  8
BUILDING_TO_SCALE
 10
511718.00
 20
1148591.00
  0
SEQEND
  8
BUILDING_TO_SCALE
  0
POLYLINE
  8
BUILDING_TO_SCALE
 66
     1
 62
     4
  6
CONTINUOUS
  0
VERTEX
  8
BUILDING_TO_SCALE
 10
511933.00
 20
1148529.00
  0
VERTEX
  8
BUILDING_TO_SCALE
 10
511957.00
 20
1148526.00
  0
VERTEX
  8
BUILDING_TO_SCALE
 10
511956.00
 20
1148457.00
  0
VERTEX
  8
BUILDING_TO_SCALE
 10
511933.00
 20
1148457.00
  0
VERTEX
  8
BUILDING_TO_SCALE
 10
511933.00
 20
1148529.00
  0
SEQEND
  8
BUILDING_TO_SCALE
  0
POLYLINE
  8
BUILDING_TO_SCALE
 66
     1
 62
     4
  6
CONTINUOUS
  0
VERTEX
  8
BUILDING_TO_SCALE
 10
511563.00
 20
1148562.00
  0
VERTEX
  8
BUILDING_TO_SCALE
 10
511606.00
 20
1148562.00
  0
VERTEX
  8
BUILDING_TO_SCALE
 10
511605.00
 20
1148559.00
  0
VERTEX
  8
BUILDING_TO_SCALE
 10
511595.00
 20
1148552.00
  0
VERTEX
  8
BUILDING_TO_SCALE
 10
511594.00
 20
1148534.00
  0
VERTEX
  8
BUILDING_TO_SCALE
 10
511595.00
 20
1148476.00
  0
VERTEX
  8
BUILDING_TO_SCALE
 10
511598.00
 20
1148451.00
  0
VERTEX
  8
BUILDING_TO_SCALE
 10
511566.00
 20
1148451.00
  0
VERTEX
  8
BUILDING_TO_SCALE
 10
511563.00
 20
1148562.00
  0
SEQEND
  8
BUILDING_TO_SCALE
  0
POLYLINE
  8
BUILDING_TO_SCALE
 66
     1
 62
     4
  6
CONTINUOUS
  0
VERTEX
  8
BUILDING_TO_SCALE
 10
511515.00
 20
1148563.00
  0
VERTEX
  8
BUILDING_TO_SCALE
 10
511549.00
 20
1148563.00
  0
VERTEX
  8
BUILDING_TO_SCALE
 10
511549.00
 20
1148449.00
  0
VERTEX
  8
BUILDING_TO_SCALE
 10
511513.00
 20
1148452.00
  0
VERTEX
  8
BUILDING_TO_SCALE
 10
511515.00
 20
1148563.00
  0
SEQEND
  8
BUILDING_TO_SCALE
  0
POLYLINE
  8
BUILDING_TO_SCALE
 66
     1
 62
     4
  6
CONTINUOUS
  0
VERTEX
  8
BUILDING_TO_SCALE
 10
511829.00
 20
1148552.00
  0
VERTEX
  8
BUILDING_TO_SCALE
 10
511850.00
 20
1148554.00
  0
VERTEX
  8
BUILDING_TO_SCALE
 10
511848.00
 20
1148446.00
  0
VERTEX
  8
BUILDING_TO_SCALE
 10
511826.00
 20
1148449.00
  0
VERTEX
  8
BUILDING_TO_SCALE
 10
511829.00
 20
1148552.00
  0
SEQEND
  8
BUILDING_TO_SCALE
  0
POLYLINE
  8
BUILDING_TO_SCALE
 66
     1
 62
     4
  6
CONTINUOUS
  0
VERTEX
  8
BUILDING_TO_SCALE
 10
511889.00
 20
1148552.00
  0
VERTEX
  8
BUILDING_TO_SCALE
 10
511911.00
 20
1148551.00
  0
VERTEX
  8
BUILDING_TO_SCALE
 10
511911.00
 20
1148445.00
  0
VERTEX
  8
BUILDING_TO_SCALE
 10
511888.00
 20
1148446.00
  0
VERTEX
  8
BUILDING_TO_SCALE
 10
511889.00
 20
1148552.00
  0
SEQEND
  8
BUILDING_TO_SCALE
  0
POLYLINE
  8
BUILDING_TO_SCALE
 66
     1
 62
     4
  6
CONTINUOUS
  0
VERTEX
  8
BUILDING_TO_SCALE
 10
511476.00
 20
1148513.00
  0
VERTEX
  8
BUILDING_TO_SCALE
 10
511504.28
 20
1148514.13
  0
VERTEX
  8
BUILDING_TO_SCALE
 10
511506.31
 20
1148418.13
  0
VERTEX
  8
BUILDING_TO_SCALE
 10
511476.00
 20
1148417.00
  0
VERTEX
  8
BUILDING_TO_SCALE
 10
511476.00
 20
1148513.00
  0
SEQEND
  8
BUILDING_TO_SCALE
  0
POLYLINE
  8
BUILDING_TO_SCALE
 66
     1
 62
     4
  6
CONTINUOUS
  0
VERTEX
  8
BUILDING_TO_SCALE
 10
512404.00
 20
1148468.00
  0
VERTEX
  8
BUILDING_TO_SCALE
 10
512420.00
 20
1148483.00
  0
VERTEX
  8
BUILDING_TO_SCALE
 10
512491.00
 20
1148405.00
  0
VERTEX
  8
BUILDING_TO_SCALE
 10
512471.00
 20
1148390.00
  0
VERTEX
  8
BUILDING_TO_SCALE
 10
512404.00
 20
1148468.00
  0
SEQEND
  8
BUILDING_TO_SCALE
  0
POLYLINE
  8
BUILDING_TO_SCALE
 66
     1
 62
     4
  6
CONTINUOUS
  0
VERTEX
  8
BUILDING_TO_SCALE
 10
512372.00
 20
1148438.00
  0
VERTEX
  8
BUILDING_TO_SCALE
 10
512395.03
 20
1148458.63
  0
VERTEX
  8
BUILDING_TO_SCALE
 10
512445.84
 20
1148400.13
  0
VERTEX
  8
BUILDING_TO_SCALE
 10
512421.00
 20
1148383.00
  0
VERTEX
  8
BUILDING_TO_SCALE
 10
512372.00
 20
1148438.00
  0
SEQEND
  8
BUILDING_TO_SCALE
  0
POLYLINE
  8
BUILDING_TO_SCALE
 66
     1
 62
     4
  6
CONTINUOUS
  0
VERTEX
  8
BUILDING_TO_SCALE
 10
511566.00
 20
1148436.00
  0
VERTEX
  8
BUILDING_TO_SCALE
 10
511595.00
 20
1148434.00
  0
VERTEX
  8
BUILDING_TO_SCALE
 10
511594.00
 20
1148345.00
  0
VERTEX
  8
BUILDING_TO_SCALE
 10
511566.00
 20
1148347.00
  0
VERTEX
  8
BUILDING_TO_SCALE
 10
511566.00
 20
1148436.00
  0
SEQEND
  8
BUILDING_TO_SCALE
  0
POLYLINE
  8
BUILDING_TO_SCALE
 66
     1
 62
     4
  6
CONTINUOUS
  0
VERTEX
  8
BUILDING_TO_SCALE
 10
511513.00
 20
1148416.00
  0
VERTEX
  8
BUILDING_TO_SCALE
 10
511542.00
 20
1148416.00
  0
VERTEX
  8
BUILDING_TO_SCALE
 10
511540.00
 20
1148341.00
  0
VERTEX
  8
BUILDING_TO_SCALE
 10
511514.00
 20
1148342.00
  0
VERTEX
  8
BUILDING_TO_SCALE
 10
511513.00
 20
1148416.00
  0
SEQEND
  8
BUILDING_TO_SCALE
  0
POLYLINE
  8
BUILDING_TO_SCALE
 66
     1
 62
     4
  6
CONTINUOUS
  0
VERTEX
  8
BUILDING_TO_SCALE
 10
511783.00
 20
1148434.00
  0
VERTEX
  8
BUILDING_TO_SCALE
 10
511804.00
 20
1148433.00
  0
VERTEX
  8
BUILDING_TO_SCALE
 10
511802.00
 20
1148330.00
  0
VERTEX
  8
BUILDING_TO_SCALE
 10
511779.00
 20
1148331.00
  0
VERTEX
  8
BUILDING_TO_SCALE
 10
511783.00
 20
1148434.00
  0
SEQEND
  8
BUILDING_TO_SCALE
  0
POLYLINE
  8
BUILDING_TO_SCALE
 66
     1
 62
     4
  6
CONTINUOUS
  0
VERTEX
  8
BUILDING_TO_SCALE
 10
511725.00
 20
1148436.00
  0
VERTEX
  8
BUILDING_TO_SCALE
 10
511745.00
 20
1148433.00
  0
VERTEX
  8
BUILDING_TO_SCALE
 10
511742.00
 20
1148329.00
  0
VERTEX
  8
BUILDING_TO_SCALE
 10
511721.00
 20
1148331.00
  0
VERTEX
  8
BUILDING_TO_SCALE
 10
511725.00
 20
1148436.00
  0
SEQEND
  8
BUILDING_TO_SCALE
  0
POLYLINE
  8
BUILDING_TO_SCALE
 66
     1
 62
     4
  6
CONTINUOUS
  0
VERTEX
  8
BUILDING_TO_SCALE
 10
511827.00
 20
1148436.00
  0
VERTEX
  8
BUILDING_TO_SCALE
 10
511847.00
 20
1148434.00
  0
VERTEX
  8
BUILDING_TO_SCALE
 10
511846.00
 20
1148328.00
  0
VERTEX
  8
BUILDING_TO_SCALE
 10
511824.00
 20
1148330.00
  0
VERTEX
  8
BUILDING_TO_SCALE
 10
511827.00
 20
1148436.00
  0
SEQEND
  8
BUILDING_TO_SCALE
  0
POLYLINE
  8
BUILDING_TO_SCALE
 66
     1
 62
     4
  6
CONTINUOUS
  0
VERTEX
  8
BUILDING_TO_SCALE
 10
511927.00
 20
1148435.00
  0
VERTEX
  8
BUILDING_TO_SCALE
 10
511951.00
 20
1148432.00
  0
VERTEX
  8
BUILDING_TO_SCALE
 10
511947.00
 20
1148327.00
  0
VERTEX
  8
BUILDING_TO_SCALE
 10
511927.00
 20
1148327.00
  0
VERTEX
  8
BUILDING_TO_SCALE
 10
511927.00
 20
1148435.00
  0
SEQEND
  8
BUILDING_TO_SCALE
  0
POLYLINE
  8
BUILDING_TO_SCALE
 66
     1
 62
     4
  6
CONTINUOUS
  0
VERTEX
  8
BUILDING_TO_SCALE
 10
511891.00
 20
1148437.00
  0
VERTEX
  8
BUILDING_TO_SCALE
 10
511910.00
 20
1148436.00
  0
VERTEX
  8
BUILDING_TO_SCALE
 10
511905.00
 20
1148326.00
  0
VERTEX
  8
BUILDING_TO_SCALE
 10
511887.00
 20
1148327.00
  0
VERTEX
  8
BUILDING_TO_SCALE
 10
511891.00
 20
1148437.00
  0
SEQEND
  8
BUILDING_TO_SCALE
  0
POLYLINE
  8
BUILDING_TO_SCALE
 66
     1
 62
     4
  6
CONTINUOUS
  0
VERTEX
  8
BUILDING_TO_SCALE
 10
512435.00
 20
1148371.00
  0
VERTEX
  8
BUILDING_TO_SCALE
 10
512456.72
 20
1148388.13
  0
VERTEX
  8
BUILDING_TO_SCALE
 10
512524.88
 20
1148309.00
  0
VERTEX
  8
BUILDING_TO_SCALE
 10
512504.00
 20
1148291.00
  0
VERTEX
  8
BUILDING_TO_SCALE
 10
512435.00
 20
1148371.00
  0
SEQEND
  8
BUILDING_TO_SCALE
  0
POLYLINE
  8
BUILDING_TO_SCALE
 66
     1
 62
     4
  6
CONTINUOUS
  0
VERTEX
  8
BUILDING_TO_SCALE
 10
512479.72
 20
1148377.63
  0
VERTEX
  8
BUILDING_TO_SCALE
 10
512499.47
 20
1148398.13
  0
VERTEX
  8
BUILDING_TO_SCALE
 10
512578.00
 20
1148305.00
  0
VERTEX
  8
BUILDING_TO_SCALE
 10
512556.00
 20
1148290.00
  0
VERTEX
  8
BUILDING_TO_SCALE
 10
512479.72
 20
1148377.63
  0
SEQEND
  8
BUILDING_TO_SCALE
  0
POLYLINE
  8
BUILDING_TO_SCALE
 66
     1
 62
     4
  6
CONTINUOUS
  0
VERTEX
  8
BUILDING_TO_SCALE
 10
511405.00
 20
1148378.00
  0
VERTEX
  8
BUILDING_TO_SCALE
 10
511425.00
 20
1148378.00
  0
VERTEX
  8
BUILDING_TO_SCALE
 10
511424.00
 20
1148292.00
  0
VERTEX
  8
BUILDING_TO_SCALE
 10
511476.00
 20
1148292.00
  0
VERTEX
  8
BUILDING_TO_SCALE
 10
511475.00
 20
1148302.00
  0
VERTEX
  8
BUILDING_TO_SCALE
 10
511504.00
 20
1148300.00
  0
VERTEX
  8
BUILDING_TO_SCALE
 10
511501.00
 20
1148271.00
  0
VERTEX
  8
BUILDING_TO_SCALE
 10
511400.00
 20
1148273.00
  0
VERTEX
  8
BUILDING_TO_SCALE
 10
511405.00
 20
1148378.00
  0
SEQEND
  8
BUILDING_TO_SCALE
  0
POLYLINE
  8
BUILDING_TO_SCALE
 66
     1
 62
     4
  6
CONTINUOUS
  0
VERTEX
  8
BUILDING_TO_SCALE
 10
511887.00
 20
1148311.00
  0
VERTEX
  8
BUILDING_TO_SCALE
 10
511908.00
 20
1148310.00
  0
VERTEX
  8
BUILDING_TO_SCALE
 10
511906.00
 20
1148241.00
  0
VERTEX
  8
BUILDING_TO_SCALE
 10
511886.00
 20
1148243.00
  0
VERTEX
  8
BUILDING_TO_SCALE
 10
511887.00
 20
1148311.00
  0
SEQEND
  8
BUILDING_TO_SCALE
  0
POLYLINE
  8
BUILDING_TO_SCALE
 66
     1
 62
     4
  6
CONTINUOUS
  0
VERTEX
  8
BUILDING_TO_SCALE
 10
511710.78
 20
1148320.75
  0
VERTEX
  8
BUILDING_TO_SCALE
 10
511737.00
 20
1148321.00
  0
VERTEX
  8
BUILDING_TO_SCALE
 10
511737.00
 20
1148233.00
  0
VERTEX
  8
BUILDING_TO_SCALE
 10
511711.00
 20
1148238.00
  0
VERTEX
  8
BUILDING_TO_SCALE
 10
511710.78
 20
1148320.75
  0
SEQEND
  8
BUILDING_TO_SCALE
  0
POLYLINE
  8
BUILDING_TO_SCALE
 66
     1
 62
     4
  6
CONTINUOUS
  0
VERTEX
  8
BUILDING_TO_SCALE
 10
511822.44
 20
1148316.38
  0
VERTEX
  8
BUILDING_TO_SCALE
 10
511847.00
 20
1148314.00
  0
VERTEX
  8
BUILDING_TO_SCALE
 10
511842.00
 20
1148232.00
  0
VERTEX
  8
BUILDING_TO_SCALE
 10
511822.00
 20
1148233.00
  0
VERTEX
  8
BUILDING_TO_SCALE
 10
511822.44
 20
1148316.38
  0
SEQEND
  8
BUILDING_TO_SCALE
  0
POLYLINE
  8
BUILDING_TO_SCALE
 66
     1
 62
     4
  6
CONTINUOUS
  0
VERTEX
  8
BUILDING_TO_SCALE
 10
511780.00
 20
1148318.00
  0
VERTEX
  8
BUILDING_TO_SCALE
 10
511807.00
 20
1148316.00
  0
VERTEX
  8
BUILDING_TO_SCALE
 10
511804.00
 20
1148229.00
  0
VERTEX
  8
BUILDING_TO_SCALE
 10
511780.00
 20
1148233.00
  0
VERTEX
  8
BUILDING_TO_SCALE
 10
511780.00
 20
1148318.00
  0
SEQEND
  8
BUILDING_TO_SCALE
  0
POLYLINE
  8
BUILDING_TO_SCALE
 66
     1
 62
     4
  6
CONTINUOUS
  0
VERTEX
  8
BUILDING_TO_SCALE
 10
512536.00
 20
1148255.00
  0
VERTEX
  8
BUILDING_TO_SCALE
 10
512557.00
 20
1148276.00
  0
VERTEX
  8
BUILDING_TO_SCALE
 10
512603.00
 20
1148222.00
  0
VERTEX
  8
BUILDING_TO_SCALE
 10
512583.00
 20
1148205.00
  0
VERTEX
  8
BUILDING_TO_SCALE
 10
512536.00
 20
1148255.00
  0
SEQEND
  8
BUILDING_TO_SCALE
  0
POLYLINE
  8
BUILDING_TO_SCALE
 66
     1
 62
     4
  6
CONTINUOUS
  0
VERTEX
  8
BUILDING_TO_SCALE
 10
512599.00
 20
1148241.00
  0
VERTEX
  8
BUILDING_TO_SCALE
 10
512622.00
 20
1148260.00
  0
VERTEX
  8
BUILDING_TO_SCALE
 10
512690.00
 20
1148182.00
  0
VERTEX
  8
BUILDING_TO_SCALE
 10
512671.00
 20
1148163.00
  0
VERTEX
  8
BUILDING_TO_SCALE
 10
512599.00
 20
1148241.00
  0
SEQEND
  8
BUILDING_TO_SCALE
  0
POLYLINE
  8
BUILDING_TO_SCALE
 66
     1
 62
     4
  6
CONTINUOUS
  0
VERTEX
  8
BUILDING_TO_SCALE
 10
511822.19
 20
1148222.50
  0
VERTEX
  8
BUILDING_TO_SCALE
 10
511846.00
 20
1148222.00
  0
VERTEX
  8
BUILDING_TO_SCALE
 10
511846.00
 20
1148137.00
  0
VERTEX
  8
BUILDING_TO_SCALE
 10
511822.00
 20
1148138.00
  0
VERTEX
  8
BUILDING_TO_SCALE
 10
511822.19
 20
1148222.50
  0
SEQEND
  8
BUILDING_TO_SCALE
  0
POLYLINE
  8
BUILDING_TO_SCALE
 66
     1
 62
     4
  6
CONTINUOUS
  0
VERTEX
  8
BUILDING_TO_SCALE
 10
511779.00
 20
1148221.00
  0
VERTEX
  8
BUILDING_TO_SCALE
 10
511805.00
 20
1148220.00
  0
VERTEX
  8
BUILDING_TO_SCALE
 10
511803.00
 20
1148136.00
  0
VERTEX
  8
BUILDING_TO_SCALE
 10
511781.00
 20
1148139.00
  0
VERTEX
  8
BUILDING_TO_SCALE
 10
511779.00
 20
1148221.00
  0
SEQEND
  8
BUILDING_TO_SCALE
  0
POLYLINE
  8
BUILDING_TO_SCALE
 66
     1
 62
     4
  6
CONTINUOUS
  0
VERTEX
  8
BUILDING_TO_SCALE
 10
513764.00
 20
1148169.00
  0
VERTEX
  8
BUILDING_TO_SCALE
 10
513817.00
 20
1148168.00
  0
VERTEX
  8
BUILDING_TO_SCALE
 10
513818.00
 20
1148182.00
  0
VERTEX
  8
BUILDING_TO_SCALE
 10
513842.00
 20
1148178.00
  0
VERTEX
  8
BUILDING_TO_SCALE
 10
513842.00
 20
1148168.00
  0
VERTEX
  8
BUILDING_TO_SCALE
 10
513848.00
 20
1148169.00
  0
VERTEX
  8
BUILDING_TO_SCALE
 10
513848.00
 20
1148138.00
  0
VERTEX
  8
BUILDING_TO_SCALE
 10
513794.00
 20
1148136.00
  0
VERTEX
  8
BUILDING_TO_SCALE
 10
513795.00
 20
1148126.00
  0
VERTEX
  8
BUILDING_TO_SCALE
 10
513778.00
 20
1148126.00
  0
VERTEX
  8
BUILDING_TO_SCALE
 10
513778.00
 20
1148137.00
  0
VERTEX
  8
BUILDING_TO_SCALE
 10
513769.00
 20
1148136.00
  0
VERTEX
  8
BUILDING_TO_SCALE
 10
513764.00
 20
1148169.00
  0
SEQEND
  8
BUILDING_TO_SCALE
  0
POLYLINE
  8
BUILDING_TO_SCALE
 66
     1
 62
     4
  6
CONTINUOUS
  0
VERTEX
  8
BUILDING_TO_SCALE
 10
511463.00
 20
1148262.00
  0
VERTEX
  8
BUILDING_TO_SCALE
 10
511505.00
 20
1148262.00
  0
VERTEX
  8
BUILDING_TO_SCALE
 10
511505.00
 20
1148092.00
  0
VERTEX
  8
BUILDING_TO_SCALE
 10
511479.00
 20
1148093.00
  0
VERTEX
  8
BUILDING_TO_SCALE
 10
511480.00
 20
1148224.00
  0
VERTEX
  8
BUILDING_TO_SCALE
 10
511464.00
 20
1148223.00
  0
VERTEX
  8
BUILDING_TO_SCALE
 10
511463.00
 20
1148262.00
  0
SEQEND
  8
BUILDING_TO_SCALE
  0
POLYLINE
  8
BUILDING_TO_SCALE
 66
     1
 62
     4
  6
CONTINUOUS
  0
VERTEX
  8
BUILDING_TO_SCALE
 10
511662.06
 20
1148127.50
  0
VERTEX
  8
BUILDING_TO_SCALE
 10
511699.25
 20
1148127.50
  0
VERTEX
  8
BUILDING_TO_SCALE
 10
511698.00
 20
1148085.00
  0
VERTEX
  8
BUILDING_TO_SCALE
 10
511684.00
 20
1148086.00
  0
VERTEX
  8
BUILDING_TO_SCALE
 10
511685.00
 20
1148107.00
  0
VERTEX
  8
BUILDING_TO_SCALE
 10
511678.00
 20
1148106.00
  0
VERTEX
  8
BUILDING_TO_SCALE
 10
511679.00
 20
1148085.00
  0
VERTEX
  8
BUILDING_TO_SCALE
 10
511661.00
 20
1148087.00
  0
VERTEX
  8
BUILDING_TO_SCALE
 10
511662.06
 20
1148127.50
  0
SEQEND
  8
BUILDING_TO_SCALE
  0
POLYLINE
  8
BUILDING_TO_SCALE
 66
     1
 62
     4
  6
CONTINUOUS
  0
VERTEX
  8
BUILDING_TO_SCALE
 10
511517.00
 20
1148107.00
  0
VERTEX
  8
BUILDING_TO_SCALE
 10
511542.00
 20
1148106.00
  0
VERTEX
  8
BUILDING_TO_SCALE
 10
511543.00
 20
1148071.00
  0
VERTEX
  8
BUILDING_TO_SCALE
 10
511536.00
 20
1148071.00
  0
VERTEX
  8
BUILDING_TO_SCALE
 10
511535.00
 20
1148057.00
  0
VERTEX
  8
BUILDING_TO_SCALE
 10
511520.00
 20
1148058.00
  0
VERTEX
  8
BUILDING_TO_SCALE
 10
511517.00
 20
1148107.00
  0
SEQEND
  8
BUILDING_TO_SCALE
  0
POLYLINE
  8
BUILDING_TO_SCALE
 66
     1
 62
     4
  6
CONTINUOUS
  0
VERTEX
  8
BUILDING_TO_SCALE
 10
516281.00
 20
1148403.00
  0
VERTEX
  8
BUILDING_TO_SCALE
 10
516308.00
 20
1148410.00
  0
VERTEX
  8
BUILDING_TO_SCALE
 10
516387.00
 20
1148159.00
  0
VERTEX
  8
BUILDING_TO_SCALE
 10
516291.00
 20
1148057.00
  0
VERTEX
  8
BUILDING_TO_SCALE
 10
516271.00
 20
1148077.00
  0
VERTEX
  8
BUILDING_TO_SCALE
 10
516357.00
 20
1148161.00
  0
VERTEX
  8
BUILDING_TO_SCALE
 10
516281.00
 20
1148403.00
  0
SEQEND
  8
BUILDING_TO_SCALE
  0
POLYLINE
  8
BUILDING_TO_SCALE
 66
     1
 62
     4
  6
CONTINUOUS
  0
VERTEX
  8
BUILDING_TO_SCALE
 10
516475.00
 20
1148046.00
  0
VERTEX
  8
BUILDING_TO_SCALE
 10
516494.00
 20
1148060.00
  0
VERTEX
  8
BUILDING_TO_SCALE
 10
516498.00
 20
1148051.00
  0
VERTEX
  8
BUILDING_TO_SCALE
 10
516494.00
 20
1148049.00
  0
VERTEX
  8
BUILDING_TO_SCALE
 10
516497.00
 20
1148048.00
  0
VERTEX
  8
BUILDING_TO_SCALE
 10
516500.00
 20
1148051.00
  0
VERTEX
  8
BUILDING_TO_SCALE
 10
516516.00
 20
1148031.00
  0
VERTEX
  8
BUILDING_TO_SCALE
 10
516502.00
 20
1148020.00
  0
VERTEX
  8
BUILDING_TO_SCALE
 10
516493.00
 20
1148033.00
  0
VERTEX
  8
BUILDING_TO_SCALE
 10
516498.00
 20
1148036.00
  0
VERTEX
  8
BUILDING_TO_SCALE
 10
516494.00
 20
1148039.00
  0
VERTEX
  8
BUILDING_TO_SCALE
 10
516480.00
 20
1148041.00
  0
VERTEX
  8
BUILDING_TO_SCALE
 10
516475.00
 20
1148046.00
  0
SEQEND
  8
BUILDING_TO_SCALE
  0
POLYLINE
  8
BUILDING_TO_SCALE
 66
     1
 62
     4
  6
CONTINUOUS
  0
VERTEX
  8
BUILDING_TO_SCALE
 10
516394.00
 20
1148182.00
  0
VERTEX
  8
BUILDING_TO_SCALE
 10
516421.00
 20
1148198.00
  0
VERTEX
  8
BUILDING_TO_SCALE
 10
516460.00
 20
1148152.00
  0
VERTEX
  8
BUILDING_TO_SCALE
 10
516494.00
 20
1148123.00
  0
VERTEX
  8
BUILDING_TO_SCALE
 10
516511.00
 20
1148112.00
  0
VERTEX
  8
BUILDING_TO_SCALE
 10
516574.00
 20
1148072.00
  0
VERTEX
  8
BUILDING_TO_SCALE
 10
516636.00
 20
1148041.00
  0
VERTEX
  8
BUILDING_TO_SCALE
 10
516649.00
 20
1148036.00
  0
VERTEX
  8
BUILDING_TO_SCALE
 10
516634.00
 20
1148010.00
  0
VERTEX
  8
BUILDING_TO_SCALE
 10
516578.00
 20
1148031.00
  0
VERTEX
  8
BUILDING_TO_SCALE
 10
516544.00
 20
1148052.00
  0
VERTEX
  8
BUILDING_TO_SCALE
 10
516493.00
 20
1148086.00
  0
VERTEX
  8
BUILDING_TO_SCALE
 10
516438.00
 20
1148135.00
  0
VERTEX
  8
BUILDING_TO_SCALE
 10
516412.00
 20
1148154.00
  0
VERTEX
  8
BUILDING_TO_SCALE
 10
516403.00
 20
1148163.00
  0
VERTEX
  8
BUILDING_TO_SCALE
 10
516396.00
 20
1148171.00
  0
VERTEX
  8
BUILDING_TO_SCALE
 10
516392.00
 20
1148177.00
  0
VERTEX
  8
BUILDING_TO_SCALE
 10
516394.00
 20
1148182.00
  0
SEQEND
  8
BUILDING_TO_SCALE
  0
POLYLINE
  8
BUILDING_TO_SCALE
 66
     1
 62
     4
  6
CONTINUOUS
  0
VERTEX
  8
BUILDING_TO_SCALE
 10
511385.00
 20
1148043.00
  0
VERTEX
  8
BUILDING_TO_SCALE
 10
511501.00
 20
1148045.00
  0
VERTEX
  8
BUILDING_TO_SCALE
 10
511502.00
 20
1147971.00
  0
VERTEX
  8
BUILDING_TO_SCALE
 10
511381.00
 20
1147966.00
  0
VERTEX
  8
BUILDING_TO_SCALE
 10
511382.00
 20
1147998.00
  0
VERTEX
  8
BUILDING_TO_SCALE
 10
511469.00
 20
1148001.00
  0
VERTEX
  8
BUILDING_TO_SCALE
 10
511470.00
 20
1148015.00
  0
VERTEX
  8
BUILDING_TO_SCALE
 10
511386.00
 20
1148017.00
  0
VERTEX
  8
BUILDING_TO_SCALE
 10
511385.00
 20
1148043.00
  0
SEQEND
  8
BUILDING_TO_SCALE
  0
POLYLINE
  8
BUILDING_TO_SCALE
 66
     1
 62
     4
  6
CONTINUOUS
  0
VERTEX
  8
BUILDING_TO_SCALE
 10
511861.00
 20
1148035.00
  0
VERTEX
  8
BUILDING_TO_SCALE
 10
511904.00
 20
1148035.00
  0
VERTEX
  8
BUILDING_TO_SCALE
 10
511903.00
 20
1147958.00
  0
VERTEX
  8
BUILDING_TO_SCALE
 10
511863.00
 20
1147960.00
  0
VERTEX
  8
BUILDING_TO_SCALE
 10
511861.00
 20
1148035.00
  0
SEQEND
  8
BUILDING_TO_SCALE
  0
POLYLINE
  8
BUILDING_TO_SCALE
 66
     1
 62
     4
  6
CONTINUOUS
  0
VERTEX
  8
BUILDING_TO_SCALE
 10
511117.00
 20
1147982.00
  0
VERTEX
  8
BUILDING_TO_SCALE
 10
511213.00
 20
1147985.00
  0
VERTEX
  8
BUILDING_TO_SCALE
 10
511214.00
 20
1147960.00
  0
VERTEX
  8
BUILDING_TO_SCALE
 10
511118.00
 20
1147953.00
  0
VERTEX
  8
BUILDING_TO_SCALE
 10
511117.00
 20
1147982.00
  0
SEQEND
  8
BUILDING_TO_SCALE
  0
POLYLINE
  8
BUILDING_TO_SCALE
 66
     1
 62
     4
  6
CONTINUOUS
  0
VERTEX
  8
BUILDING_TO_SCALE
 10
511238.00
 20
1147987.00
  0
VERTEX
  8
BUILDING_TO_SCALE
 10
511353.00
 20
1147991.00
  0
VERTEX
  8
BUILDING_TO_SCALE
 10
511353.00
 20
1147962.00
  0
VERTEX
  8
BUILDING_TO_SCALE
 10
511241.00
 20
1147953.00
  0
VERTEX
  8
BUILDING_TO_SCALE
 10
511238.00
 20
1147987.00
  0
SEQEND
  8
BUILDING_TO_SCALE
  0
POLYLINE
  8
BUILDING_TO_SCALE
 66
     1
 62
     4
  6
CONTINUOUS
  0
VERTEX
  8
BUILDING_TO_SCALE
 10
510846.00
 20
1147969.00
  0
VERTEX
  8
BUILDING_TO_SCALE
 10
510945.00
 20
1147971.00
  0
VERTEX
  8
BUILDING_TO_SCALE
 10
510943.00
 20
1147943.00
  0
VERTEX
  8
BUILDING_TO_SCALE
 10
510848.00
 20
1147941.00
  0
VERTEX
  8
BUILDING_TO_SCALE
 10
510846.00
 20
1147969.00
  0
SEQEND
  8
BUILDING_TO_SCALE
  0
POLYLINE
  8
BUILDING_TO_SCALE
 66
     1
 62
     4
  6
CONTINUOUS
  0
VERTEX
  8
BUILDING_TO_SCALE
 10
510971.00
 20
1147972.00
  0
VERTEX
  8
BUILDING_TO_SCALE
 10
511106.00
 20
1147978.00
  0
VERTEX
  8
BUILDING_TO_SCALE
 10
511106.00
 20
1147948.00
  0
VERTEX
  8
BUILDING_TO_SCALE
 10
510973.00
 20
1147941.00
  0
VERTEX
  8
BUILDING_TO_SCALE
 10
510971.00
 20
1147972.00
  0
SEQEND
  8
BUILDING_TO_SCALE
  0
POLYLINE
  8
BUILDING_TO_SCALE
 66
     1
 62
     4
  6
CONTINUOUS
  0
VERTEX
  8
BUILDING_TO_SCALE
 10
510707.00
 20
1147976.00
  0
VERTEX
  8
BUILDING_TO_SCALE
 10
510837.00
 20
1147972.00
  0
VERTEX
  8
BUILDING_TO_SCALE
 10
510834.00
 20
1147938.00
  0
VERTEX
  8
BUILDING_TO_SCALE
 10
510708.00
 20
1147942.00
  0
VERTEX
  8
BUILDING_TO_SCALE
 10
510707.00
 20
1147976.00
  0
SEQEND
  8
BUILDING_TO_SCALE
  0
POLYLINE
  8
BUILDING_TO_SCALE
 66
     1
 62
     4
  6
CONTINUOUS
  0
VERTEX
  8
BUILDING_TO_SCALE
 10
511377.19
 20
1147954.88
  0
VERTEX
  8
BUILDING_TO_SCALE
 10
511505.13
 20
1147960.75
  0
VERTEX
  8
BUILDING_TO_SCALE
 10
511505.00
 20
1147924.00
  0
VERTEX
  8
BUILDING_TO_SCALE
 10
511376.00
 20
1147918.00
  0
VERTEX
  8
BUILDING_TO_SCALE
 10
511377.19
 20
1147954.88
  0
SEQEND
  8
BUILDING_TO_SCALE
  0
POLYLINE
  8
BUILDING_TO_SCALE
 66
     1
 62
     4
  6
CONTINUOUS
  0
VERTEX
  8
BUILDING_TO_SCALE
 10
511235.00
 20
1147945.00
  0
VERTEX
  8
BUILDING_TO_SCALE
 10
511366.00
 20
1147955.00
  0
VERTEX
  8
BUILDING_TO_SCALE
 10
511365.00
 20
1147919.00
  0
VERTEX
  8
BUILDING_TO_SCALE
 10
511235.00
 20
1147910.00
  0
VERTEX
  8
BUILDING_TO_SCALE
 10
511235.00
 20
1147945.00
  0
SEQEND
  8
BUILDING_TO_SCALE
  0
POLYLINE
  8
BUILDING_TO_SCALE
 66
     1
 62
     4
  6
CONTINUOUS
  0
VERTEX
  8
BUILDING_TO_SCALE
 10
510985.00
 20
1147932.00
  0
VERTEX
  8
BUILDING_TO_SCALE
 10
511119.00
 20
1147937.00
  0
VERTEX
  8
BUILDING_TO_SCALE
 10
511120.00
 20
1147909.00
  0
VERTEX
  8
BUILDING_TO_SCALE
 10
510987.00
 20
1147902.00
  0
VERTEX
  8
BUILDING_TO_SCALE
 10
510985.00
 20
1147932.00
  0
SEQEND
  8
BUILDING_TO_SCALE
  0
POLYLINE
  8
BUILDING_TO_SCALE
 66
     1
 62
     4
  6
CONTINUOUS
  0
VERTEX
  8
BUILDING_TO_SCALE
 10
510847.00
 20
1147928.00
  0
VERTEX
  8
BUILDING_TO_SCALE
 10
510954.00
 20
1147929.00
  0
VERTEX
  8
BUILDING_TO_SCALE
 10
510954.00
 20
1147898.00
  0
VERTEX
  8
BUILDING_TO_SCALE
 10
510846.00
 20
1147894.00
  0
VERTEX
  8
BUILDING_TO_SCALE
 10
510847.00
 20
1147928.00
  0
SEQEND
  8
BUILDING_TO_SCALE
  0
POLYLINE
  8
BUILDING_TO_SCALE
 66
     1
 62
     4
  6
CONTINUOUS
  0
VERTEX
  8
BUILDING_TO_SCALE
 10
511373.00
 20
1147900.00
  0
VERTEX
  8
BUILDING_TO_SCALE
 10
511503.00
 20
1147908.00
  0
VERTEX
  8
BUILDING_TO_SCALE
 10
511503.00
 20
1147875.00
  0
VERTEX
  8
BUILDING_TO_SCALE
 10
511377.00
 20
1147871.00
  0
VERTEX
  8
BUILDING_TO_SCALE
 10
511373.00
 20
1147900.00
  0
SEQEND
  8
BUILDING_TO_SCALE
  0
POLYLINE
  8
BUILDING_TO_SCALE
 66
     1
 62
     4
  6
CONTINUOUS
  0
VERTEX
  8
BUILDING_TO_SCALE
 10
511234.00
 20
1147894.00
  0
VERTEX
  8
BUILDING_TO_SCALE
 10
511365.00
 20
1147902.00
  0
VERTEX
  8
BUILDING_TO_SCALE
 10
511367.00
 20
1147871.00
  0
VERTEX
  8
BUILDING_TO_SCALE
 10
511234.00
 20
1147865.00
  0
VERTEX
  8
BUILDING_TO_SCALE
 10
511234.00
 20
1147894.00
  0
SEQEND
  8
BUILDING_TO_SCALE
  0
POLYLINE
  8
BUILDING_TO_SCALE
 66
     1
 62
     4
  6
CONTINUOUS
  0
VERTEX
  8
BUILDING_TO_SCALE
 10
511157.00
 20
1147889.00
  0
VERTEX
  8
BUILDING_TO_SCALE
 10
511210.00
 20
1147890.00
  0
VERTEX
  8
BUILDING_TO_SCALE
 10
511208.00
 20
1147862.00
  0
VERTEX
  8
BUILDING_TO_SCALE
 10
511160.00
 20
1147861.00
  0
VERTEX
  8
BUILDING_TO_SCALE
 10
511157.00
 20
1147889.00
  0
SEQEND
  8
BUILDING_TO_SCALE
  0
POLYLINE
  8
BUILDING_TO_SCALE
 66
     1
 62
     4
  6
CONTINUOUS
  0
VERTEX
  8
BUILDING_TO_SCALE
 10
510543.00
 20
1147895.00
  0
VERTEX
  8
BUILDING_TO_SCALE
 10
510705.00
 20
1147894.00
  0
VERTEX
  8
BUILDING_TO_SCALE
 10
510707.00
 20
1147930.00
  0
VERTEX
  8
BUILDING_TO_SCALE
 10
510837.00
 20
1147927.00
  0
VERTEX
  8
BUILDING_TO_SCALE
 10
510834.00
 20
1147851.00
  0
VERTEX
  8
BUILDING_TO_SCALE
 10
510701.00
 20
1147850.00
  0
VERTEX
  8
BUILDING_TO_SCALE
 10
510544.00
 20
1147860.00
  0
VERTEX
  8
BUILDING_TO_SCALE
 10
510543.00
 20
1147895.00
  0
SEQEND
  8
BUILDING_TO_SCALE
  0
POLYLINE
  8
BUILDING_TO_SCALE
 66
     1
 62
     4
  6
CONTINUOUS
  0
VERTEX
  8
BUILDING_TO_SCALE
 10
510846.00
 20
1147876.00
  0
VERTEX
  8
BUILDING_TO_SCALE
 10
511094.00
 20
1147882.00
  0
VERTEX
  8
BUILDING_TO_SCALE
 10
511093.00
 20
1147860.00
  0
VERTEX
  8
BUILDING_TO_SCALE
 10
511007.00
 20
1147847.00
  0
VERTEX
  8
BUILDING_TO_SCALE
 10
510846.00
 20
1147850.00
  0
VERTEX
  8
BUILDING_TO_SCALE
 10
510846.00
 20
1147876.00
  0
SEQEND
  8
BUILDING_TO_SCALE
  0
POLYLINE
  8
BUILDING_TO_SCALE
 66
     1
 62
     4
  6
CONTINUOUS
  0
VERTEX
  8
BUILDING_TO_SCALE
 10
516400.00
 20
1147861.00
  0
VERTEX
  8
BUILDING_TO_SCALE
 10
516478.00
 20
1147874.00
  0
VERTEX
  8
BUILDING_TO_SCALE
 10
516480.00
 20
1147867.00
  0
VERTEX
  8
BUILDING_TO_SCALE
 10
516507.00
 20
1147872.00
  0
VERTEX
  8
BUILDING_TO_SCALE
 10
516509.00
 20
1147837.00
  0
VERTEX
  8
BUILDING_TO_SCALE
 10
516487.00
 20
1147834.00
  0
VERTEX
  8
BUILDING_TO_SCALE
 10
516485.00
 20
1147841.00
  0
VERTEX
  8
BUILDING_TO_SCALE
 10
516425.00
 20
1147833.00
  0
VERTEX
  8
BUILDING_TO_SCALE
 10
516423.00
 20
1147842.00
  0
VERTEX
  8
BUILDING_TO_SCALE
 10
516407.00
 20
1147841.00
  0
VERTEX
  8
BUILDING_TO_SCALE
 10
516400.00
 20
1147861.00
  0
SEQEND
  8
BUILDING_TO_SCALE
  0
POLYLINE
  8
BUILDING_TO_SCALE
 66
     1
 62
     4
  6
CONTINUOUS
  0
VERTEX
  8
BUILDING_TO_SCALE
 10
511227.00
 20
1147797.00
  0
VERTEX
  8
BUILDING_TO_SCALE
 10
511385.00
 20
1147793.00
  0
VERTEX
  8
BUILDING_TO_SCALE
 10
511386.00
 20
1147821.00
  0
VERTEX
  8
BUILDING_TO_SCALE
 10
511410.00
 20
1147821.00
  0
VERTEX
  8
BUILDING_TO_SCALE
 10
511409.00
 20
1147772.00
  0
VERTEX
  8
BUILDING_TO_SCALE
 10
511225.00
 20
1147777.00
  0
VERTEX
  8
BUILDING_TO_SCALE
 10
511227.00
 20
1147797.00
  0
SEQEND
  8
BUILDING_TO_SCALE
  0
POLYLINE
  8
BUILDING_TO_SCALE
 66
     1
 62
     4
  6
CONTINUOUS
  0
VERTEX
  8
BUILDING_TO_SCALE
 10
511196.00
 20
1147751.00
  0
VERTEX
  8
BUILDING_TO_SCALE
 10
511410.00
 20
1147749.00
  0
VERTEX
  8
BUILDING_TO_SCALE
 10
511408.00
 20
1147688.00
  0
VERTEX
  8
BUILDING_TO_SCALE
 10
511390.00
 20
1147690.00
  0
VERTEX
  8
BUILDING_TO_SCALE
 10
511393.00
 20
1147732.00
  0
VERTEX
  8
BUILDING_TO_SCALE
 10
511196.00
 20
1147736.00
  0
VERTEX
  8
BUILDING_TO_SCALE
 10
511196.00
 20
1147751.00
  0
SEQEND
  8
BUILDING_TO_SCALE
  0
POLYLINE
  8
BUILDING_TO_SCALE
 66
     1
 62
     4
  6
CONTINUOUS
  0
VERTEX
  8
BUILDING_TO_SCALE
 10
511428.00
 20
1147773.00
  0
VERTEX
  8
BUILDING_TO_SCALE
 10
511451.00
 20
1147771.00
  0
VERTEX
  8
BUILDING_TO_SCALE
 10
511448.00
 20
1147686.00
  0
VERTEX
  8
BUILDING_TO_SCALE
 10
511426.00
 20
1147685.00
  0
VERTEX
  8
BUILDING_TO_SCALE
 10
511428.00
 20
1147773.00
  0
SEQEND
  8
BUILDING_TO_SCALE
  0
POLYLINE
  8
BUILDING_TO_SCALE
 66
     1
 62
     4
  6
CONTINUOUS
  0
VERTEX
  8
BUILDING_TO_SCALE
 10
511247.00
 20
1147700.00
  0
VERTEX
  8
BUILDING_TO_SCALE
 10
511376.00
 20
1147699.00
  0
VERTEX
  8
BUILDING_TO_SCALE
 10
511376.00
 20
1147674.00
  0
VERTEX
  8
BUILDING_TO_SCALE
 10
511248.00
 20
1147677.00
  0
VERTEX
  8
BUILDING_TO_SCALE
 10
511247.00
 20
1147700.00
  0
SEQEND
  8
BUILDING_TO_SCALE
  0
POLYLINE
  8
BUILDING_TO_SCALE
 66
     1
 62
     4
  6
CONTINUOUS
  0
VERTEX
  8
BUILDING_TO_SCALE
 10
511168.00
 20
1147739.00
  0
VERTEX
  8
BUILDING_TO_SCALE
 10
511188.00
 20
1147741.00
  0
VERTEX
  8
BUILDING_TO_SCALE
 10
511182.00
 20
1147646.00
  0
VERTEX
  8
BUILDING_TO_SCALE
 10
511165.00
 20
1147649.00
  0
VERTEX
  8
BUILDING_TO_SCALE
 10
511168.00
 20
1147739.00
  0
SEQEND
  8
BUILDING_TO_SCALE
  0
POLYLINE
  8
BUILDING_TO_SCALE
 66
     1
 62
     4
  6
CONTINUOUS
  0
VERTEX
  8
BUILDING_TO_SCALE
 10
511237.00
 20
1147660.00
  0
VERTEX
  8
BUILDING_TO_SCALE
 10
511378.00
 20
1147652.00
  0
VERTEX
  8
BUILDING_TO_SCALE
 10
511377.00
 20
1147636.00
  0
VERTEX
  8
BUILDING_TO_SCALE
 10
511237.00
 20
1147643.00
  0
VERTEX
  8
BUILDING_TO_SCALE
 10
511237.00
 20
1147660.00
  0
SEQEND
  8
BUILDING_TO_SCALE
  0
POLYLINE
  8
BUILDING_TO_SCALE
 66
     1
 62
     4
  6
CONTINUOUS
  0
VERTEX
  8
BUILDING_TO_SCALE
 10
511393.00
 20
1147545.00
  0
VERTEX
  8
BUILDING_TO_SCALE
 10
511410.00
 20
1147546.00
  0
VERTEX
  8
BUILDING_TO_SCALE
 10
511413.00
 20
1147606.00
  0
VERTEX
  8
BUILDING_TO_SCALE
 10
511393.00
 20
1147607.00
  0
VERTEX
  8
BUILDING_TO_SCALE
 10
511393.00
 20
1147545.00
  0
SEQEND
  8
BUILDING_TO_SCALE
  0
POLYLINE
  8
BUILDING_TO_SCALE
 66
     1
 62
     4
  6
CONTINUOUS
  0
VERTEX
  8
BUILDING_TO_SCALE
 10
511440.00
 20
1147617.00
  0
VERTEX
  8
BUILDING_TO_SCALE
 10
511459.00
 20
1147616.00
  0
VERTEX
  8
BUILDING_TO_SCALE
 10
511457.00
 20
1147539.00
  0
VERTEX
  8
BUILDING_TO_SCALE
 10
511439.00
 20
1147539.00
  0
VERTEX
  8
BUILDING_TO_SCALE
 10
511440.00
 20
1147617.00
  0
SEQEND
  8
BUILDING_TO_SCALE
  0
POLYLINE
  8
BUILDING_TO_SCALE
 66
     1
 62
     4
  6
CONTINUOUS
  0
VERTEX
  8
BUILDING_TO_SCALE
 10
511275.00
 20
1147563.00
  0
VERTEX
  8
BUILDING_TO_SCALE
 10
511380.00
 20
1147559.00
  0
VERTEX
  8
BUILDING_TO_SCALE
 10
511378.00
 20
1147542.00
  0
VERTEX
  8
BUILDING_TO_SCALE
 10
511293.00
 20
1147548.00
  0
VERTEX
  8
BUILDING_TO_SCALE
 10
511290.00
 20
1147535.00
  0
VERTEX
  8
BUILDING_TO_SCALE
 10
511271.00
 20
1147536.00
  0
VERTEX
  8
BUILDING_TO_SCALE
 10
511275.00
 20
1147563.00
  0
SEQEND
  8
BUILDING_TO_SCALE
  0
POLYLINE
  8
BUILDING_TO_SCALE
 66
     1
 62
     4
  6
CONTINUOUS
  0
VERTEX
  8
BUILDING_TO_SCALE
 10
516466.00
 20
1147458.00
  0
VERTEX
  8
BUILDING_TO_SCALE
 10
516526.00
 20
1147476.00
  0
VERTEX
  8
BUILDING_TO_SCALE
 10
516530.00
 20
1147465.00
  0
VERTEX
  8
BUILDING_TO_SCALE
 10
516471.00
 20
1147448.00
  0
VERTEX
  8
BUILDING_TO_SCALE
 10
516466.00
 20
1147458.00
  0
SEQEND
  8
BUILDING_TO_SCALE
  0
POLYLINE
  8
BUILDING_TO_SCALE
 66
     1
 62
     4
  6
CONTINUOUS
  0
VERTEX
  8
BUILDING_TO_SCALE
 10
511477.00
 20
1147520.00
  0
VERTEX
  8
BUILDING_TO_SCALE
 10
511504.00
 20
1147518.00
  0
VERTEX
  8
BUILDING_TO_SCALE
 10
511504.00
 20
1147399.00
  0
VERTEX
  8
BUILDING_TO_SCALE
 10
511479.00
 20
1147399.00
  0
VERTEX
  8
BUILDING_TO_SCALE
 10
511477.00
 20
1147520.00
  0
SEQEND
  8
BUILDING_TO_SCALE
  0
POLYLINE
  8
BUILDING_TO_SCALE
 66
     1
 62
     4
  6
CONTINUOUS
  0
VERTEX
  8
BUILDING_TO_SCALE
 10
511948.00
 20
1147232.00
  0
VERTEX
  8
BUILDING_TO_SCALE
 10
511972.00
 20
1147249.00
  0
VERTEX
  8
BUILDING_TO_SCALE
 10
511996.00
 20
1147221.00
  0
VERTEX
  8
BUILDING_TO_SCALE
 10
512002.00
 20
1147226.00
  0
VERTEX
  8
BUILDING_TO_SCALE
 10
512010.00
 20
1147214.00
  0
VERTEX
  8
BUILDING_TO_SCALE
 10
511995.00
 20
1147203.00
  0
VERTEX
  8
BUILDING_TO_SCALE
 10
511992.00
 20
1147207.00
  0
VERTEX
  8
BUILDING_TO_SCALE
 10
511970.00
 20
1147189.00
  0
VERTEX
  8
BUILDING_TO_SCALE
 10
511959.00
 20
1147202.00
  0
VERTEX
  8
BUILDING_TO_SCALE
 10
511968.00
 20
1147207.00
  0
VERTEX
  8
BUILDING_TO_SCALE
 10
511948.00
 20
1147232.00
  0
SEQEND
  8
BUILDING_TO_SCALE
  0
POLYLINE
  8
BUILDING_TO_SCALE
 66
     1
 62
     4
  6
CONTINUOUS
  0
VERTEX
  8
BUILDING_TO_SCALE
 10
512167.00
 20
1147191.00
  0
VERTEX
  8
BUILDING_TO_SCALE
 10
512193.00
 20
1147178.00
  0
VERTEX
  8
BUILDING_TO_SCALE
 10
512176.00
 20
1147136.00
  0
VERTEX
  8
BUILDING_TO_SCALE
 10
512147.00
 20
1147149.00
  0
VERTEX
  8
BUILDING_TO_SCALE
 10
512167.00
 20
1147191.00
  0
SEQEND
  8
BUILDING_TO_SCALE
  0
POLYLINE
  8
BUILDING_TO_SCALE
 66
     1
 62
     4
  6
CONTINUOUS
  0
VERTEX
  8
BUILDING_TO_SCALE
 10
511963.00
 20
1147079.00
  0
VERTEX
  8
BUILDING_TO_SCALE
 10
511974.00
 20
1147088.00
  0
VERTEX
  8
BUILDING_TO_SCALE
 10
511962.00
 20
1147107.00
  0
VERTEX
  8
BUILDING_TO_SCALE
 10
511988.00
 20
1147127.00
  0
VERTEX
  8
BUILDING_TO_SCALE
 10
512005.00
 20
1147105.00
  0
VERTEX
  8
BUILDING_TO_SCALE
 10
511993.00
 20
1147094.00
  0
VERTEX
  8
BUILDING_TO_SCALE
 10
512050.00
 20
1147016.00
  0
VERTEX
  8
BUILDING_TO_SCALE
 10
512028.00
 20
1146999.00
  0
VERTEX
  8
BUILDING_TO_SCALE
 10
511963.00
 20
1147079.00
  0
SEQEND
  8
BUILDING_TO_SCALE
  0
POLYLINE
  8
BUILDING_TO_SCALE
 66
     1
 62
     4
  6
CONTINUOUS
  0
VERTEX
  8
BUILDING_TO_SCALE
 10
511951.00
 20
1146517.00
  0
VERTEX
  8
BUILDING_TO_SCALE
 10
512080.00
 20
1146608.00
  0
VERTEX
  8
BUILDING_TO_SCALE
 10
512092.00
 20
1146591.00
  0
VERTEX
  8
BUILDING_TO_SCALE
 10
511962.00
 20
1146505.00
  0
VERTEX
  8
BUILDING_TO_SCALE
 10
511951.00
 20
1146517.00
  0
SEQEND
  8
BUILDING_TO_SCALE
  0
ENDSEC
  0
EOF
