  0
SECTION
  2
HEADER
  9
$DWGCODEPAGE
  3
iso8859-1
  9
$EXTMIN
 10
510000.00
 20
1140000.00
  9
$EXTMAX
 10
520000.00
 20
1150000.00
  9
$LUPREC
 70
    14
  0
ENDSEC
  0
SECTION
  2
TABLES
  0
ENDSEC
  0
SECTION
  2
BLOCKS
  0
ENDSEC
  0
SECTION
  2
ENTITIES
  0
POLYLINE
  8
BDRY_TWP_LOT_UNSURVEYED
 66
     1
 62
     2
  6
DIVIDE
  0
VERTEX
  8
BDRY_TWP_LOT_UNSURVEYED
 10
517937.00
 20
1150000.00
  0
VERTEX
  8
BDRY_TWP_LOT_UNSURVEYED
 10
517944.00
 20
1149344.00
  0
SEQEND
  8
BDRY_TWP_LOT_UNSURVEYED
  0
POLYLINE
  8
VIRTUAL_SEGMENT_LOT
 66
     1
 62
    14
  6
CONTINUOUS
  0
VERTEX
  8
VIRTUAL_SEGMENT_LOT
 10
517944.00
 20
1149344.00
  0
VERTEX
  8
VIRTUAL_SEGMENT_LOT
 10
517945.00
 20
1149237.00
  0
SEQEND
  8
VIRTUAL_SEGMENT_LOT
  0
POLYLINE
  8
BDRY_TWP_LOT_UNSURVEYED
 66
     1
 62
     2
  6
DIVIDE
  0
VERTEX
  8
BDRY_TWP_LOT_UNSURVEYED
 10
511483.00
 20
1150000.00
  0
VERTEX
  8
BDRY_TWP_LOT_UNSURVEYED
 10
511506.00
 20
1148760.00
  0
SEQEND
  8
BDRY_TWP_LOT_UNSURVEYED
  0
POLYLINE
  8
BDRY_TWP_LOT_UNSURVEYED
 66
     1
 62
     2
  6
DIVIDE
  0
VERTEX
  8
BDRY_TWP_LOT_UNSURVEYED
 10
516331.00
 20
1150000.00
  0
VERTEX
  8
BDRY_TWP_LOT_UNSURVEYED
 10
516337.00
 20
1149200.00
  0
VERTEX
  8
BDRY_TWP_LOT_UNSURVEYED
 10
516343.00
 20
1148689.00
  0
SEQEND
  8
BDRY_TWP_LOT_UNSURVEYED
  0
POLYLINE
  8
BDRY_TWP
 66
     1
 62
     4
  6
CONTINUOUS
  0
VERTEX
  8
BDRY_TWP
 10
513918.00
 20
1150000.00
  0
VERTEX
  8
BDRY_TWP
 10
513925.00
 20
1148614.00
  0
SEQEND
  8
BDRY_TWP
  0
POLYLINE
  8
BDRY_TWP_LOT-SURVEYED
 66
     1
 62
     2
  6
DASHDOT2
  0
VERTEX
  8
BDRY_TWP_LOT-SURVEYED
 10
513117.00
 20
1148613.00
  0
VERTEX
  8
BDRY_TWP_LOT-SURVEYED
 10
513925.00
 20
1148614.00
  0
SEQEND
  8
BDRY_TWP_LOT-SURVEYED
  0
POLYLINE
  8
BDRY_TWP_LOT_UNSURVEYED
 66
     1
 62
     2
  6
DIVIDE
  0
VERTEX
  8
BDRY_TWP_LOT_UNSURVEYED
 10
513113.00
 20
1150000.00
  0
VERTEX
  8
BDRY_TWP_LOT_UNSURVEYED
 10
513117.00
 20
1148785.00
  0
VERTEX
  8
BDRY_TWP_LOT_UNSURVEYED
 10
513117.00
 20
1148613.00
  0
SEQEND
  8
BDRY_TWP_LOT_UNSURVEYED
  0
POLYLINE
  8
BDRY_TWP_LOT-SURVEYED
 66
     1
 62
     2
  6
DASHDOT2
  0
VERTEX
  8
BDRY_TWP_LOT-SURVEYED
 10
512317.00
 20
1148611.00
  0
VERTEX
  8
BDRY_TWP_LOT-SURVEYED
 10
512815.00
 20
1148613.00
  0
VERTEX
  8
BDRY_TWP_LOT-SURVEYED
 10
513117.00
 20
1148613.00
  0
SEQEND
  8
BDRY_TWP_LOT-SURVEYED
  0
POLYLINE
  8
BDRY_TWP_LOT-SURVEYED
 66
     1
 62
     2
  6
DASHDOT2
  0
VERTEX
  8
BDRY_TWP_LOT-SURVEYED
 10
512306.00
 20
1150000.00
  0
VERTEX
  8
BDRY_TWP_LOT-SURVEYED
 10
512316.00
 20
1148941.00
  0
VERTEX
  8
BDRY_TWP_LOT-SURVEYED
 10
512317.00
 20
1148611.00
  0
SEQEND
  8
BDRY_TWP_LOT-SURVEYED
  0
POLYLINE
  8
BDRY_TWP_LOT-SURVEYED
 66
     1
 62
     2
  6
DASHDOT2
  0
VERTEX
  8
BDRY_TWP_LOT-SURVEYED
 10
511964.00
 20
1148610.00
  0
VERTEX
  8
BDRY_TWP_LOT-SURVEYED
 10
512317.00
 20
1148611.00
  0
SEQEND
  8
BDRY_TWP_LOT-SURVEYED
  0
POLYLINE
  8
VIRTUAL_SEGMENT_LOT
 66
     1
 62
    14
  6
CONTINUOUS
  0
VERTEX
  8
VIRTUAL_SEGMENT_LOT
 10
511506.00
 20
1148608.00
  0
VERTEX
  8
VIRTUAL_SEGMENT_LOT
 10
511964.00
 20
1148610.00
  0
SEQEND
  8
VIRTUAL_SEGMENT_LOT
  0
POLYLINE
  8
VIRTUAL_SEGMENT_LOT
 66
     1
 62
    14
  6
CONTINUOUS
  0
VERTEX
  8
VIRTUAL_SEGMENT_LOT
 10
511506.00
 20
1148760.00
  0
VERTEX
  8
VIRTUAL_SEGMENT_LOT
 10
511506.00
 20
1148608.00
  0
SEQEND
  8
VIRTUAL_SEGMENT_LOT
  0
POLYLINE
  8
VIRTUAL_SEGMENT_LOT
 66
     1
 62
    14
  6
CONTINUOUS
  0
VERTEX
  8
VIRTUAL_SEGMENT_LOT
 10
511416.00
 20
1148608.00
  0
VERTEX
  8
VIRTUAL_SEGMENT_LOT
 10
511506.00
 20
1148608.00
  0
SEQEND
  8
VIRTUAL_SEGMENT_LOT
  0
POLYLINE
  8
BDRY_TWP_LOT_UNSURVEYED
 66
     1
 62
     2
  6
DIVIDE
  0
VERTEX
  8
BDRY_TWP_LOT_UNSURVEYED
 10
514729.00
 20
1150000.00
  0
VERTEX
  8
BDRY_TWP_LOT_UNSURVEYED
 10
514729.00
 20
1148685.00
  0
VERTEX
  8
BDRY_TWP_LOT_UNSURVEYED
 10
514729.00
 20
1148608.00
  0
SEQEND
  8
BDRY_TWP_LOT_UNSURVEYED
  0
POLYLINE
  8
BDRY_TWP_LOT-SURVEYED
 66
     1
 62
     2
  6
DASHDOT2
  0
VERTEX
  8
BDRY_TWP_LOT-SURVEYED
 10
513925.00
 20
1148614.00
  0
VERTEX
  8
BDRY_TWP_LOT-SURVEYED
 10
514124.00
 20
1148615.00
  0
VERTEX
  8
BDRY_TWP_LOT-SURVEYED
 10
514729.00
 20
1148608.00
  0
SEQEND
  8
BDRY_TWP_LOT-SURVEYED
  0
POLYLINE
  8
BDRY_TWP_LOT-SURVEYED
 66
     1
 62
     2
  6
DASHDOT2
  0
VERTEX
  8
BDRY_TWP_LOT-SURVEYED
 10
515532.00
 20
1150000.00
  0
VERTEX
  8
BDRY_TWP_LOT-SURVEYED
 10
515525.00
 20
1148877.00
  0
VERTEX
  8
BDRY_TWP_LOT-SURVEYED
 10
515528.00
 20
1148600.00
  0
SEQEND
  8
BDRY_TWP_LOT-SURVEYED
  0
POLYLINE
  8
BDRY_TWP_LOT-SURVEYED
 66
     1
 62
     2
  6
DASHDOT2
  0
VERTEX
  8
BDRY_TWP_LOT-SURVEYED
 10
514729.00
 20
1148608.00
  0
VERTEX
  8
BDRY_TWP_LOT-SURVEYED
 10
515528.00
 20
1148600.00
  0
SEQEND
  8
BDRY_TWP_LOT-SURVEYED
  0
POLYLINE
  8
VIRTUAL_SEGMENT_LOT
 66
     1
 62
    14
  6
CONTINUOUS
  0
VERTEX
  8
VIRTUAL_SEGMENT_LOT
 10
516343.00
 20
1148689.00
  0
VERTEX
  8
VIRTUAL_SEGMENT_LOT
 10
516346.00
 20
1148590.00
  0
SEQEND
  8
VIRTUAL_SEGMENT_LOT
  0
POLYLINE
  8
BDRY_TWP_LOT-SURVEYED
 66
     1
 62
     2
  6
DASHDOT2
  0
VERTEX
  8
BDRY_TWP_LOT-SURVEYED
 10
515528.00
 20
1148600.00
  0
VERTEX
  8
BDRY_TWP_LOT-SURVEYED
 10
515714.00
 20
1148598.00
  0
VERTEX
  8
BDRY_TWP_LOT-SURVEYED
 10
516346.00
 20
1148590.00
  0
SEQEND
  8
BDRY_TWP_LOT-SURVEYED
  0
POLYLINE
  8
BDRY_TWP_LOT-SURVEYED
 66
     1
 62
     2
  6
DASHDOT2
  0
VERTEX
  8
BDRY_TWP_LOT-SURVEYED
 10
517137.00
 20
1150000.00
  0
VERTEX
  8
BDRY_TWP_LOT-SURVEYED
 10
517132.00
 20
1149222.00
  0
VERTEX
  8
BDRY_TWP_LOT-SURVEYED
 10
517137.00
 20
1148592.00
  0
VERTEX
  8
BDRY_TWP_LOT-SURVEYED
 10
517137.00
 20
1148581.00
  0
SEQEND
  8
BDRY_TWP_LOT-SURVEYED
  0
POLYLINE
  8
BDRY_TWP_LOT-SURVEYED
 66
     1
 62
     2
  6
DASHDOT2
  0
VERTEX
  8
BDRY_TWP_LOT-SURVEYED
 10
516346.00
 20
1148590.00
  0
VERTEX
  8
BDRY_TWP_LOT-SURVEYED
 10
516845.00
 20
1148583.00
  0
VERTEX
  8
BDRY_TWP_LOT-SURVEYED
 10
517137.00
 20
1148581.00
  0
SEQEND
  8
BDRY_TWP_LOT-SURVEYED
  0
POLYLINE
  8
BDRY_TWP_LOT-SURVEYED
 66
     1
 62
     2
  6
DASHDOT2
  0
VERTEX
  8
BDRY_TWP_LOT-SURVEYED
 10
517137.00
 20
1148581.00
  0
VERTEX
  8
BDRY_TWP_LOT-SURVEYED
 10
517506.00
 20
1148577.00
  0
SEQEND
  8
BDRY_TWP_LOT-SURVEYED
  0
POLYLINE
  8
VIRTUAL_SEGMENT_LOT
 66
     1
 62
    14
  6
CONTINUOUS
  0
VERTEX
  8
VIRTUAL_SEGMENT_LOT
 10
517506.00
 20
1148577.00
  0
VERTEX
  8
VIRTUAL_SEGMENT_LOT
 10
517569.00
 20
1148576.00
  0
SEQEND
  8
VIRTUAL_SEGMENT_LOT
  0
POLYLINE
  8
BDRY_TWP_LOT_UNSURVEYED
 66
     1
 62
     2
  6
DIVIDE
  0
VERTEX
  8
BDRY_TWP_LOT_UNSURVEYED
 10
517945.00
 20
1149237.00
  0
VERTEX
  8
BDRY_TWP_LOT_UNSURVEYED
 10
517950.00
 20
1148570.00
  0
SEQEND
  8
BDRY_TWP_LOT_UNSURVEYED
  0
POLYLINE
  8
BDRY_TWP_LOT-SURVEYED
 66
     1
 62
     2
  6
DASHDOT2
  0
VERTEX
  8
BDRY_TWP_LOT-SURVEYED
 10
517569.00
 20
1148576.00
  0
VERTEX
  8
BDRY_TWP_LOT-SURVEYED
 10
517950.00
 20
1148570.00
  0
SEQEND
  8
BDRY_TWP_LOT-SURVEYED
  0
POLYLINE
  8
BDRY_TWP_LOT-SURVEYED
 66
     1
 62
     2
  6
DASHDOT2
  0
VERTEX
  8
BDRY_TWP_LOT-SURVEYED
 10
517950.00
 20
1148570.00
  0
VERTEX
  8
BDRY_TWP_LOT-SURVEYED
 10
518556.00
 20
1148560.00
  0
SEQEND
  8
BDRY_TWP_LOT-SURVEYED
  0
POLYLINE
  8
VIRTUAL_SEGMENT_LOT
 66
     1
 62
    14
  6
CONTINUOUS
  0
VERTEX
  8
VIRTUAL_SEGMENT_LOT
 10
518556.00
 20
1148560.00
  0
VERTEX
  8
VIRTUAL_SEGMENT_LOT
 10
518577.00
 20
1148560.00
  0
SEQEND
  8
VIRTUAL_SEGMENT_LOT
  0
POLYLINE
  8
BDRY_TWP_LOT-SURVEYED
 66
     1
 62
     2
  6
DASHDOT2
  0
VERTEX
  8
BDRY_TWP_LOT-SURVEYED
 10
518727.00
 20
1150000.00
  0
VERTEX
  8
BDRY_TWP_LOT-SURVEYED
 10
518738.00
 20
1148893.00
  0
VERTEX
  8
BDRY_TWP_LOT-SURVEYED
 10
518740.00
 20
1148557.00
  0
SEQEND
  8
BDRY_TWP_LOT-SURVEYED
  0
POLYLINE
  8
BDRY_TWP_LOT-SURVEYED
 66
     1
 62
     2
  6
DASHDOT2
  0
VERTEX
  8
BDRY_TWP_LOT-SURVEYED
 10
518577.00
 20
1148560.00
  0
VERTEX
  8
BDRY_TWP_LOT-SURVEYED
 10
518683.00
 20
1148558.00
  0
VERTEX
  8
BDRY_TWP_LOT-SURVEYED
 10
518740.00
 20
1148557.00
  0
SEQEND
  8
BDRY_TWP_LOT-SURVEYED
  0
POLYLINE
  8
BDRY_TWP_LOT-SURVEYED
 66
     1
 62
     2
  6
DASHDOT2
  0
VERTEX
  8
BDRY_TWP_LOT-SURVEYED
 10
518740.00
 20
1148557.00
  0
VERTEX
  8
BDRY_TWP_LOT-SURVEYED
 10
519468.00
 20
1148545.00
  0
SEQEND
  8
BDRY_TWP_LOT-SURVEYED
  0
POLYLINE
  8
VIRTUAL_SEGMENT_LOT
 66
     1
 62
    14
  6
CONTINUOUS
  0
VERTEX
  8
VIRTUAL_SEGMENT_LOT
 10
519468.00
 20
1148545.00
  0
VERTEX
  8
VIRTUAL_SEGMENT_LOT
 10
519488.00
 20
1148545.00
  0
SEQEND
  8
VIRTUAL_SEGMENT_LOT
  0
POLYLINE
  8
BDRY_TWP_LOT_UNSURVEYED
 66
     1
 62
     2
  6
DIVIDE
  0
VERTEX
  8
BDRY_TWP_LOT_UNSURVEYED
 10
519528.00
 20
1150000.00
  0
VERTEX
  8
BDRY_TWP_LOT_UNSURVEYED
 10
519546.00
 20
1148544.00
  0
SEQEND
  8
BDRY_TWP_LOT_UNSURVEYED
  0
POLYLINE
  8
BDRY_TWP_LOT-SURVEYED
 66
     1
 62
     2
  6
DASHDOT2
  0
VERTEX
  8
BDRY_TWP_LOT-SURVEYED
 10
519488.00
 20
1148545.00
  0
VERTEX
  8
BDRY_TWP_LOT-SURVEYED
 10
519546.00
 20
1148544.00
  0
SEQEND
  8
BDRY_TWP_LOT-SURVEYED
  0
POLYLINE
  8
BDRY_TWP_LOT-SURVEYED
 66
     1
 62
     2
  6
DASHDOT2
  0
VERTEX
  8
BDRY_TWP_LOT-SURVEYED
 10
519546.00
 20
1148544.00
  0
VERTEX
  8
BDRY_TWP_LOT-SURVEYED
 10
519580.00
 20
1148543.00
  0
SEQEND
  8
BDRY_TWP_LOT-SURVEYED
  0
POLYLINE
  8
VIRTUAL_SEGMENT_LOT
 66
     1
 62
    14
  6
CONTINUOUS
  0
VERTEX
  8
VIRTUAL_SEGMENT_LOT
 10
516346.00
 20
1148590.00
  0
VERTEX
  8
VIRTUAL_SEGMENT_LOT
 10
516351.00
 20
1148415.00
  0
SEQEND
  8
VIRTUAL_SEGMENT_LOT
  0
POLYLINE
  8
BDRY_TWP_LOT-SURVEYED
 66
     1
 62
     2
  6
DASHDOT2
  0
VERTEX
  8
BDRY_TWP_LOT-SURVEYED
 10
517137.00
 20
1148581.00
  0
VERTEX
  8
BDRY_TWP_LOT-SURVEYED
 10
517143.00
 20
1148240.00
  0
SEQEND
  8
BDRY_TWP_LOT-SURVEYED
  0
POLYLINE
  8
VIRTUAL_SEGMENT_LOT
 66
     1
 62
    14
  6
CONTINUOUS
  0
VERTEX
  8
VIRTUAL_SEGMENT_LOT
 10
517143.00
 20
1148240.00
  0
VERTEX
  8
VIRTUAL_SEGMENT_LOT
 10
517146.00
 20
1148150.00
  0
SEQEND
  8
VIRTUAL_SEGMENT_LOT
  0
POLYLINE
  8
BDRY_TWP_LOT_UNSURVEYED
 66
     1
 62
     2
  6
DIVIDE
  0
VERTEX
  8
BDRY_TWP_LOT_UNSURVEYED
 10
516351.00
 20
1148415.00
  0
VERTEX
  8
BDRY_TWP_LOT_UNSURVEYED
 10
516349.00
 20
1147959.00
  0
SEQEND
  8
BDRY_TWP_LOT_UNSURVEYED
  0
POLYLINE
  8
VIRTUAL_SEGMENT_LOT
 66
     1
 62
    14
  6
CONTINUOUS
  0
VERTEX
  8
VIRTUAL_SEGMENT_LOT
 10
516349.00
 20
1147959.00
  0
VERTEX
  8
VIRTUAL_SEGMENT_LOT
 10
516348.00
 20
1147916.00
  0
SEQEND
  8
VIRTUAL_SEGMENT_LOT
  0
POLYLINE
  8
BDRY_TWP_LOT-SURVEYED
 66
     1
 62
     2
  6
DASHDOT2
  0
VERTEX
  8
BDRY_TWP_LOT-SURVEYED
 10
518740.00
 20
1148557.00
  0
VERTEX
  8
BDRY_TWP_LOT-SURVEYED
 10
518745.00
 20
1147843.00
  0
SEQEND
  8
BDRY_TWP_LOT-SURVEYED
  0
POLYLINE
  8
VIRTUAL_SEGMENT_LOT
 66
     1
 62
    14
  6
CONTINUOUS
  0
VERTEX
  8
VIRTUAL_SEGMENT_LOT
 10
518745.00
 20
1147843.00
  0
VERTEX
  8
VIRTUAL_SEGMENT_LOT
 10
518745.00
 20
1147803.00
  0
SEQEND
  8
VIRTUAL_SEGMENT_LOT
  0
POLYLINE
  8
BDRY_TWP_LOT_UNSURVEYED
 66
     1
 62
     2
  6
DIVIDE
  0
VERTEX
  8
BDRY_TWP_LOT_UNSURVEYED
 10
519546.00
 20
1148544.00
  0
VERTEX
  8
BDRY_TWP_LOT_UNSURVEYED
 10
519548.00
 20
1148373.00
  0
VERTEX
  8
BDRY_TWP_LOT_UNSURVEYED
 10
519554.00
 20
1147325.00
  0
SEQEND
  8
BDRY_TWP_LOT_UNSURVEYED
  0
POLYLINE
  8
VIRTUAL_SEGMENT_LOT
 66
     1
 62
    14
  6
CONTINUOUS
  0
VERTEX
  8
VIRTUAL_SEGMENT_LOT
 10
519554.00
 20
1147325.00
  0
VERTEX
  8
VIRTUAL_SEGMENT_LOT
 10
519555.00
 20
1147282.00
  0
SEQEND
  8
VIRTUAL_SEGMENT_LOT
  0
POLYLINE
  8
BDRY_TWP
 66
     1
 62
     4
  6
CONTINUOUS
  0
VERTEX
  8
BDRY_TWP
 10
513925.00
 20
1148614.00
  0
VERTEX
  8
BDRY_TWP
 10
513928.00
 20
1148214.00
  0
VERTEX
  8
BDRY_TWP
 10
513940.00
 20
1147029.00
  0
SEQEND
  8
BDRY_TWP
  0
POLYLINE
  8
BDRY_TWP_LOT_UNSURVEYED
 66
     1
 62
     2
  6
DIVIDE
  0
VERTEX
  8
BDRY_TWP_LOT_UNSURVEYED
 10
514729.00
 20
1148608.00
  0
VERTEX
  8
BDRY_TWP_LOT_UNSURVEYED
 10
514738.00
 20
1147399.00
  0
VERTEX
  8
BDRY_TWP_LOT_UNSURVEYED
 10
514736.00
 20
1147024.00
  0
SEQEND
  8
BDRY_TWP_LOT_UNSURVEYED
  0
POLYLINE
  8
BDRY_TWP_LOT-SURVEYED
 66
     1
 62
     2
  6
DASHDOT2
  0
VERTEX
  8
BDRY_TWP_LOT-SURVEYED
 10
513940.00
 20
1147029.00
  0
VERTEX
  8
BDRY_TWP_LOT-SURVEYED
 10
514736.00
 20
1147024.00
  0
SEQEND
  8
BDRY_TWP_LOT-SURVEYED
  0
POLYLINE
  8
BDRY_TWP_LOT-SURVEYED
 66
     1
 62
     2
  6
DASHDOT2
  0
VERTEX
  8
BDRY_TWP_LOT-SURVEYED
 10
514736.00
 20
1147024.00
  0
VERTEX
  8
BDRY_TWP_LOT-SURVEYED
 10
514908.00
 20
1147022.00
  0
SEQEND
  8
BDRY_TWP_LOT-SURVEYED
  0
POLYLINE
  8
VIRTUAL_SEGMENT_LOT
 66
     1
 62
    14
  6
CONTINUOUS
  0
VERTEX
  8
VIRTUAL_SEGMENT_LOT
 10
514908.00
 20
1147022.00
  0
VERTEX
  8
VIRTUAL_SEGMENT_LOT
 10
514976.00
 20
1147022.00
  0
SEQEND
  8
VIRTUAL_SEGMENT_LOT
  0
POLYLINE
  8
BDRY_TWP_LOT-SURVEYED
 66
     1
 62
     2
  6
DASHDOT2
  0
VERTEX
  8
BDRY_TWP_LOT-SURVEYED
 10
513119.00
 20
1147020.00
  0
VERTEX
  8
BDRY_TWP_LOT-SURVEYED
 10
513937.00
 20
1147029.00
  0
VERTEX
  8
BDRY_TWP_LOT-SURVEYED
 10
513940.00
 20
1147029.00
  0
SEQEND
  8
BDRY_TWP_LOT-SURVEYED
  0
POLYLINE
  8
BDRY_TWP_LOT_UNSURVEYED
 66
     1
 62
     2
  6
DIVIDE
  0
VERTEX
  8
BDRY_TWP_LOT_UNSURVEYED
 10
513117.00
 20
1148613.00
  0
VERTEX
  8
BDRY_TWP_LOT_UNSURVEYED
 10
513119.00
 20
1147456.00
  0
VERTEX
  8
BDRY_TWP_LOT_UNSURVEYED
 10
513119.00
 20
1147020.00
  0
SEQEND
  8
BDRY_TWP_LOT_UNSURVEYED
  0
POLYLINE
  8
BDRY_TWP_LOT-SURVEYED
 66
     1
 62
     2
  6
DASHDOT2
  0
VERTEX
  8
BDRY_TWP_LOT-SURVEYED
 10
514976.00
 20
1147022.00
  0
VERTEX
  8
BDRY_TWP_LOT-SURVEYED
 10
515231.00
 20
1147020.00
  0
SEQEND
  8
BDRY_TWP_LOT-SURVEYED
  0
POLYLINE
  8
VIRTUAL_SEGMENT_LOT
 66
     1
 62
    14
  6
CONTINUOUS
  0
VERTEX
  8
VIRTUAL_SEGMENT_LOT
 10
515231.00
 20
1147020.00
  0
VERTEX
  8
VIRTUAL_SEGMENT_LOT
 10
515270.00
 20
1147020.00
  0
SEQEND
  8
VIRTUAL_SEGMENT_LOT
  0
POLYLINE
  8
BDRY_TWP_LOT-SURVEYED
 66
     1
 62
     2
  6
DASHDOT2
  0
VERTEX
  8
BDRY_TWP_LOT-SURVEYED
 10
515270.00
 20
1147020.00
  0
VERTEX
  8
BDRY_TWP_LOT-SURVEYED
 10
515322.00
 20
1147020.00
  0
SEQEND
  8
BDRY_TWP_LOT-SURVEYED
  0
POLYLINE
  8
VIRTUAL_SEGMENT_LOT
 66
     1
 62
    14
  6
CONTINUOUS
  0
VERTEX
  8
VIRTUAL_SEGMENT_LOT
 10
515322.00
 20
1147020.00
  0
VERTEX
  8
VIRTUAL_SEGMENT_LOT
 10
515334.00
 20
1147019.00
  0
SEQEND
  8
VIRTUAL_SEGMENT_LOT
  0
POLYLINE
  8
BDRY_TWP_LOT-SURVEYED
 66
     1
 62
     2
  6
DASHDOT2
  0
VERTEX
  8
BDRY_TWP_LOT-SURVEYED
 10
515528.00
 20
1148600.00
  0
VERTEX
  8
BDRY_TWP_LOT-SURVEYED
 10
515540.00
 20
1147577.00
  0
VERTEX
  8
BDRY_TWP_LOT-SURVEYED
 10
515545.00
 20
1147018.00
  0
SEQEND
  8
BDRY_TWP_LOT-SURVEYED
  0
POLYLINE
  8
BDRY_TWP_LOT-SURVEYED
 66
     1
 62
     2
  6
DASHDOT2
  0
VERTEX
  8
BDRY_TWP_LOT-SURVEYED
 10
515334.00
 20
1147019.00
  0
VERTEX
  8
BDRY_TWP_LOT-SURVEYED
 10
515493.00
 20
1147018.00
  0
VERTEX
  8
BDRY_TWP_LOT-SURVEYED
 10
515545.00
 20
1147018.00
  0
SEQEND
  8
BDRY_TWP_LOT-SURVEYED
  0
POLYLINE
  8
BDRY_TWP_LOT-SURVEYED
 66
     1
 62
     2
  6
DASHDOT2
  0
VERTEX
  8
BDRY_TWP_LOT-SURVEYED
 10
515545.00
 20
1147018.00
  0
VERTEX
  8
BDRY_TWP_LOT-SURVEYED
 10
515566.00
 20
1147018.00
  0
SEQEND
  8
BDRY_TWP_LOT-SURVEYED
  0
POLYLINE
  8
VIRTUAL_SEGMENT_LOT
 66
     1
 62
    14
  6
CONTINUOUS
  0
VERTEX
  8
VIRTUAL_SEGMENT_LOT
 10
515566.00
 20
1147018.00
  0
VERTEX
  8
VIRTUAL_SEGMENT_LOT
 10
515626.00
 20
1147017.00
  0
SEQEND
  8
VIRTUAL_SEGMENT_LOT
  0
POLYLINE
  8
BDRY_TWP_LOT-SURVEYED
 66
     1
 62
     2
  6
DASHDOT2
  0
VERTEX
  8
BDRY_TWP_LOT-SURVEYED
 10
515626.00
 20
1147017.00
  0
VERTEX
  8
BDRY_TWP_LOT-SURVEYED
 10
516316.00
 20
1147011.00
  0
SEQEND
  8
BDRY_TWP_LOT-SURVEYED
  0
POLYLINE
  8
BDRY_TWP_LOT_UNSURVEYED
 66
     1
 62
     2
  6
DIVIDE
  0
VERTEX
  8
BDRY_TWP_LOT_UNSURVEYED
 10
516348.00
 20
1147916.00
  0
VERTEX
  8
BDRY_TWP_LOT_UNSURVEYED
 10
516351.00
 20
1147011.00
  0
SEQEND
  8
BDRY_TWP_LOT_UNSURVEYED
  0
POLYLINE
  8
BDRY_TWP_LOT-SURVEYED
 66
     1
 62
     2
  6
DASHDOT2
  0
VERTEX
  8
BDRY_TWP_LOT-SURVEYED
 10
516316.00
 20
1147011.00
  0
VERTEX
  8
BDRY_TWP_LOT-SURVEYED
 10
516351.00
 20
1147011.00
  0
SEQEND
  8
BDRY_TWP_LOT-SURVEYED
  0
POLYLINE
  8
BDRY_TWP_LOT-SURVEYED
 66
     1
 62
     2
  6
DASHDOT2
  0
VERTEX
  8
BDRY_TWP_LOT-SURVEYED
 10
512319.00
 20
1147009.00
  0
VERTEX
  8
BDRY_TWP_LOT-SURVEYED
 10
512557.00
 20
1147014.00
  0
VERTEX
  8
BDRY_TWP_LOT-SURVEYED
 10
513119.00
 20
1147020.00
  0
SEQEND
  8
BDRY_TWP_LOT-SURVEYED
  0
POLYLINE
  8
BDRY_TWP_LOT-SURVEYED
 66
     1
 62
     2
  6
DASHDOT2
  0
VERTEX
  8
BDRY_TWP_LOT-SURVEYED
 10
512317.00
 20
1148611.00
  0
VERTEX
  8
BDRY_TWP_LOT-SURVEYED
 10
512320.00
 20
1147641.00
  0
VERTEX
  8
BDRY_TWP_LOT-SURVEYED
 10
512319.00
 20
1147009.00
  0
SEQEND
  8
BDRY_TWP_LOT-SURVEYED
  0
POLYLINE
  8
BDRY_TWP_LOT-SURVEYED
 66
     1
 62
     2
  6
DASHDOT2
  0
VERTEX
  8
BDRY_TWP_LOT-SURVEYED
 10
517146.00
 20
1148150.00
  0
VERTEX
  8
BDRY_TWP_LOT-SURVEYED
 10
517155.00
 20
1147388.00
  0
VERTEX
  8
BDRY_TWP_LOT-SURVEYED
 10
517161.00
 20
1147004.00
  0
SEQEND
  8
BDRY_TWP_LOT-SURVEYED
  0
POLYLINE
  8
BDRY_TWP_LOT-SURVEYED
 66
     1
 62
     2
  6
DASHDOT2
  0
VERTEX
  8
BDRY_TWP_LOT-SURVEYED
 10
516351.00
 20
1147011.00
  0
VERTEX
  8
BDRY_TWP_LOT-SURVEYED
 10
517024.00
 20
1147005.00
  0
VERTEX
  8
BDRY_TWP_LOT-SURVEYED
 10
517161.00
 20
1147004.00
  0
SEQEND
  8
BDRY_TWP_LOT-SURVEYED
  0
POLYLINE
  8
BDRY_TWP_LOT-SURVEYED
 66
     1
 62
     2
  6
DASHDOT2
  0
VERTEX
  8
BDRY_TWP_LOT-SURVEYED
 10
517161.00
 20
1147004.00
  0
VERTEX
  8
BDRY_TWP_LOT-SURVEYED
 10
517944.00
 20
1146998.00
  0
SEQEND
  8
BDRY_TWP_LOT-SURVEYED
  0
POLYLINE
  8
BDRY_TWP_LOT_UNSURVEYED
 66
     1
 62
     2
  6
DIVIDE
  0
VERTEX
  8
BDRY_TWP_LOT_UNSURVEYED
 10
517950.00
 20
1148570.00
  0
VERTEX
  8
BDRY_TWP_LOT_UNSURVEYED
 10
517956.00
 20
1147623.00
  0
VERTEX
  8
BDRY_TWP_LOT_UNSURVEYED
 10
517963.00
 20
1146998.00
  0
SEQEND
  8
BDRY_TWP_LOT_UNSURVEYED
  0
POLYLINE
  8
BDRY_TWP_LOT-SURVEYED
 66
     1
 62
     2
  6
DASHDOT2
  0
VERTEX
  8
BDRY_TWP_LOT-SURVEYED
 10
517944.00
 20
1146998.00
  0
VERTEX
  8
BDRY_TWP_LOT-SURVEYED
 10
517963.00
 20
1146998.00
  0
SEQEND
  8
BDRY_TWP_LOT-SURVEYED
  0
POLYLINE
  8
BDRY_TWP_LOT-SURVEYED
 66
     1
 62
     2
  6
DASHDOT2
  0
VERTEX
  8
BDRY_TWP_LOT-SURVEYED
 10
517963.00
 20
1146998.00
  0
VERTEX
  8
BDRY_TWP_LOT-SURVEYED
 10
518006.00
 20
1146998.00
  0
SEQEND
  8
BDRY_TWP_LOT-SURVEYED
  0
POLYLINE
  8
VIRTUAL_SEGMENT_LOT
 66
     1
 62
    14
  6
CONTINUOUS
  0
VERTEX
  8
VIRTUAL_SEGMENT_LOT
 10
518006.00
 20
1146998.00
  0
VERTEX
  8
VIRTUAL_SEGMENT_LOT
 10
518636.00
 20
1146994.00
  0
SEQEND
  8
VIRTUAL_SEGMENT_LOT
  0
POLYLINE
  8
BDRY_TWP_LOT-SURVEYED
 66
     1
 62
     2
  6
DASHDOT2
  0
VERTEX
  8
BDRY_TWP_LOT-SURVEYED
 10
518745.00
 20
1147803.00
  0
VERTEX
  8
BDRY_TWP_LOT-SURVEYED
 10
518748.00
 20
1147315.00
  0
VERTEX
  8
BDRY_TWP_LOT-SURVEYED
 10
518747.00
 20
1146993.00
  0
SEQEND
  8
BDRY_TWP_LOT-SURVEYED
  0
POLYLINE
  8
BDRY_TWP_LOT-SURVEYED
 66
     1
 62
     2
  6
DASHDOT2
  0
VERTEX
  8
BDRY_TWP_LOT-SURVEYED
 10
518636.00
 20
1146994.00
  0
VERTEX
  8
BDRY_TWP_LOT-SURVEYED
 10
518747.00
 20
1146993.00
  0
SEQEND
  8
BDRY_TWP_LOT-SURVEYED
  0
POLYLINE
  8
BDRY_TWP_LOT-SURVEYED
 66
     1
 62
     2
  6
DASHDOT2
  0
VERTEX
  8
BDRY_TWP_LOT-SURVEYED
 10
511508.00
 20
1146991.00
  0
VERTEX
  8
BDRY_TWP_LOT-SURVEYED
 10
512319.00
 20
1147009.00
  0
SEQEND
  8
BDRY_TWP_LOT-SURVEYED
  0
POLYLINE
  8
VIRTUAL_SEGMENT_LOT
 66
     1
 62
    14
  6
CONTINUOUS
  0
VERTEX
  8
VIRTUAL_SEGMENT_LOT
 10
511506.00
 20
1148608.00
  0
VERTEX
  8
VIRTUAL_SEGMENT_LOT
 10
511508.00
 20
1146991.00
  0
SEQEND
  8
VIRTUAL_SEGMENT_LOT
  0
POLYLINE
  8
BDRY_TWP_LOT-SURVEYED
 66
     1
 62
     2
  6
DASHDOT2
  0
VERTEX
  8
BDRY_TWP_LOT-SURVEYED
 10
510780.00
 20
1146985.00
  0
VERTEX
  8
BDRY_TWP_LOT-SURVEYED
 10
511307.00
 20
1146987.00
  0
VERTEX
  8
BDRY_TWP_LOT-SURVEYED
 10
511508.00
 20
1146991.00
  0
SEQEND
  8
BDRY_TWP_LOT-SURVEYED
  0
POLYLINE
  8
VIRTUAL_SEGMENT_LOT
 66
     1
 62
    14
  6
CONTINUOUS
  0
VERTEX
  8
VIRTUAL_SEGMENT_LOT
 10
510752.00
 20
1146985.00
  0
VERTEX
  8
VIRTUAL_SEGMENT_LOT
 10
510780.00
 20
1146985.00
  0
SEQEND
  8
VIRTUAL_SEGMENT_LOT
  0
POLYLINE
  8
VIRTUAL_SEGMENT_LOT
 66
     1
 62
    14
  6
CONTINUOUS
  0
VERTEX
  8
VIRTUAL_SEGMENT_LOT
 10
511508.00
 20
1146991.00
  0
VERTEX
  8
VIRTUAL_SEGMENT_LOT
 10
511508.00
 20
1146915.00
  0
SEQEND
  8
VIRTUAL_SEGMENT_LOT
  0
POLYLINE
  8
BDRY_TWP_LOT_UNSURVEYED
 66
     1
 62
     2
  6
DIVIDE
  0
VERTEX
  8
BDRY_TWP_LOT_UNSURVEYED
 10
514736.00
 20
1147024.00
  0
VERTEX
  8
BDRY_TWP_LOT_UNSURVEYED
 10
514736.00
 20
1146914.00
  0
SEQEND
  8
BDRY_TWP_LOT_UNSURVEYED
  0
POLYLINE
  8
BDRY_TWP_LOT-SURVEYED
 66
     1
 62
     2
  6
DASHDOT2
  0
VERTEX
  8
BDRY_TWP_LOT-SURVEYED
 10
515545.00
 20
1147018.00
  0
VERTEX
  8
BDRY_TWP_LOT-SURVEYED
 10
515546.00
 20
1146909.00
  0
SEQEND
  8
BDRY_TWP_LOT-SURVEYED
  0
POLYLINE
  8
VIRTUAL_SEGMENT_LOT
 66
     1
 62
    14
  6
CONTINUOUS
  0
VERTEX
  8
VIRTUAL_SEGMENT_LOT
 10
514736.00
 20
1146914.00
  0
VERTEX
  8
VIRTUAL_SEGMENT_LOT
 10
514740.00
 20
1146871.00
  0
SEQEND
  8
VIRTUAL_SEGMENT_LOT
  0
POLYLINE
  8
BDRY_TWP_LOT_UNSURVEYED
 66
     1
 62
     2
  6
DIVIDE
  0
VERTEX
  8
BDRY_TWP_LOT_UNSURVEYED
 10
514740.00
 20
1146871.00
  0
VERTEX
  8
BDRY_TWP_LOT_UNSURVEYED
 10
514740.00
 20
1146835.00
  0
SEQEND
  8
BDRY_TWP_LOT_UNSURVEYED
  0
POLYLINE
  8
VIRTUAL_SEGMENT_LOT
 66
     1
 62
    14
  6
CONTINUOUS
  0
VERTEX
  8
VIRTUAL_SEGMENT_LOT
 10
514740.00
 20
1146835.00
  0
VERTEX
  8
VIRTUAL_SEGMENT_LOT
 10
514739.00
 20
1146812.00
  0
SEQEND
  8
VIRTUAL_SEGMENT_LOT
  0
POLYLINE
  8
VIRTUAL_SEGMENT_LOT
 66
     1
 62
    14
  6
CONTINUOUS
  0
VERTEX
  8
VIRTUAL_SEGMENT_LOT
 10
510697.00
 20
1146951.00
  0
VERTEX
  8
VIRTUAL_SEGMENT_LOT
 10
510698.00
 20
1146806.00
  0
SEQEND
  8
VIRTUAL_SEGMENT_LOT
  0
POLYLINE
  8
VIRTUAL_SEGMENT_LOT
 66
     1
 62
    14
  6
CONTINUOUS
  0
VERTEX
  8
VIRTUAL_SEGMENT_LOT
 10
515546.00
 20
1146909.00
  0
VERTEX
  8
VIRTUAL_SEGMENT_LOT
 10
515549.00
 20
1146792.00
  0
SEQEND
  8
VIRTUAL_SEGMENT_LOT
  0
POLYLINE
  8
BDRY_TWP_LOT-SURVEYED
 66
     1
 62
     2
  6
DASHDOT2
  0
VERTEX
  8
BDRY_TWP_LOT-SURVEYED
 10
515549.00
 20
1146792.00
  0
VERTEX
  8
BDRY_TWP_LOT-SURVEYED
 10
515547.00
 20
1146527.00
  0
SEQEND
  8
BDRY_TWP_LOT-SURVEYED
  0
POLYLINE
  8
BDRY_TWP_LOT-SURVEYED
 66
     1
 62
     2
  6
DASHDOT2
  0
VERTEX
  8
BDRY_TWP_LOT-SURVEYED
 10
518747.00
 20
1146993.00
  0
VERTEX
  8
BDRY_TWP_LOT-SURVEYED
 10
518743.00
 20
1146144.00
  0
SEQEND
  8
BDRY_TWP_LOT-SURVEYED
  0
POLYLINE
  8
VIRTUAL_SEGMENT_LOT
 66
     1
 62
    14
  6
CONTINUOUS
  0
VERTEX
  8
VIRTUAL_SEGMENT_LOT
 10
518743.00
 20
1146144.00
  0
VERTEX
  8
VIRTUAL_SEGMENT_LOT
 10
518743.00
 20
1146119.00
  0
SEQEND
  8
VIRTUAL_SEGMENT_LOT
  0
POLYLINE
  8
VIRTUAL_SEGMENT_LOT
 66
     1
 62
    14
  6
CONTINUOUS
  0
VERTEX
  8
VIRTUAL_SEGMENT_LOT
 10
519536.00
 20
1145832.00
  0
VERTEX
  8
VIRTUAL_SEGMENT_LOT
 10
519535.00
 20
1145788.00
  0
SEQEND
  8
VIRTUAL_SEGMENT_LOT
  0
POLYLINE
  8
BDRY_TWP_LOT_UNSURVEYED
 66
     1
 62
     2
  6
DIVIDE
  0
VERTEX
  8
BDRY_TWP_LOT_UNSURVEYED
 10
513119.00
 20
1147020.00
  0
VERTEX
  8
BDRY_TWP_LOT_UNSURVEYED
 10
513118.00
 20
1146366.00
  0
VERTEX
  8
BDRY_TWP_LOT_UNSURVEYED
 10
513116.00
 20
1145741.00
  0
SEQEND
  8
BDRY_TWP_LOT_UNSURVEYED
  0
POLYLINE
  8
VIRTUAL_SEGMENT_LOT
 66
     1
 62
    14
  6
CONTINUOUS
  0
VERTEX
  8
VIRTUAL_SEGMENT_LOT
 10
515547.00
 20
1146527.00
  0
VERTEX
  8
VIRTUAL_SEGMENT_LOT
 10
515541.00
 20
1145732.00
  0
SEQEND
  8
VIRTUAL_SEGMENT_LOT
  0
POLYLINE
  8
VIRTUAL_SEGMENT_LOT
 66
     1
 62
    14
  6
CONTINUOUS
  0
VERTEX
  8
VIRTUAL_SEGMENT_LOT
 10
513116.00
 20
1145741.00
  0
VERTEX
  8
VIRTUAL_SEGMENT_LOT
 10
513116.00
 20
1145715.00
  0
SEQEND
  8
VIRTUAL_SEGMENT_LOT
  0
POLYLINE
  8
BDRY_TWP_LOT_UNSURVEYED
 66
     1
 62
     2
  6
DIVIDE
  0
VERTEX
  8
BDRY_TWP_LOT_UNSURVEYED
 10
516316.00
 20
1147011.00
  0
VERTEX
  8
BDRY_TWP_LOT_UNSURVEYED
 10
516326.00
 20
1146315.00
  0
VERTEX
  8
BDRY_TWP_LOT_UNSURVEYED
 10
516333.00
 20
1145816.00
  0
VERTEX
  8
BDRY_TWP_LOT_UNSURVEYED
 10
516337.00
 20
1145525.00
  0
SEQEND
  8
BDRY_TWP_LOT_UNSURVEYED
  0
POLYLINE
  8
VIRTUAL_SEGMENT_LOT
 66
     1
 62
    14
  6
CONTINUOUS
  0
VERTEX
  8
VIRTUAL_SEGMENT_LOT
 10
516337.00
 20
1145525.00
  0
VERTEX
  8
VIRTUAL_SEGMENT_LOT
 10
516337.00
 20
1145502.00
  0
SEQEND
  8
VIRTUAL_SEGMENT_LOT
  0
POLYLINE
  8
BDRY_TWP_LOT-SURVEYED
 66
     1
 62
     2
  6
DASHDOT2
  0
VERTEX
  8
BDRY_TWP_LOT-SURVEYED
 10
518743.00
 20
1146119.00
  0
VERTEX
  8
BDRY_TWP_LOT-SURVEYED
 10
518743.00
 20
1145958.00
  0
VERTEX
  8
BDRY_TWP_LOT-SURVEYED
 10
518739.00
 20
1145465.00
  0
SEQEND
  8
BDRY_TWP_LOT-SURVEYED
  0
POLYLINE
  8
BDRY_TWP_LOT-SURVEYED
 66
     1
 62
     2
  6
DASHDOT2
  0
VERTEX
  8
BDRY_TWP_LOT-SURVEYED
 10
517946.00
 20
1145455.00
  0
VERTEX
  8
BDRY_TWP_LOT-SURVEYED
 10
518635.00
 20
1145464.00
  0
VERTEX
  8
BDRY_TWP_LOT-SURVEYED
 10
518739.00
 20
1145465.00
  0
SEQEND
  8
BDRY_TWP_LOT-SURVEYED
  0
POLYLINE
  8
BDRY_TWP_LOT_UNSURVEYED
 66
     1
 62
     2
  6
DIVIDE
  0
VERTEX
  8
BDRY_TWP_LOT_UNSURVEYED
 10
517944.00
 20
1146998.00
  0
VERTEX
  8
BDRY_TWP_LOT_UNSURVEYED
 10
517946.00
 20
1146092.00
  0
VERTEX
  8
BDRY_TWP_LOT_UNSURVEYED
 10
517946.00
 20
1145476.00
  0
VERTEX
  8
BDRY_TWP_LOT_UNSURVEYED
 10
517946.00
 20
1145455.00
  0
SEQEND
  8
BDRY_TWP_LOT_UNSURVEYED
  0
POLYLINE
  8
BDRY_TWP_LOT-SURVEYED
 66
     1
 62
     2
  6
DASHDOT2
  0
VERTEX
  8
BDRY_TWP_LOT-SURVEYED
 10
517723.00
 20
1145452.00
  0
VERTEX
  8
BDRY_TWP_LOT-SURVEYED
 10
517946.00
 20
1145455.00
  0
SEQEND
  8
BDRY_TWP_LOT-SURVEYED
  0
POLYLINE
  8
VIRTUAL_SEGMENT_LOT
 66
     1
 62
    14
  6
CONTINUOUS
  0
VERTEX
  8
VIRTUAL_SEGMENT_LOT
 10
517549.00
 20
1145447.00
  0
VERTEX
  8
VIRTUAL_SEGMENT_LOT
 10
517723.00
 20
1145452.00
  0
SEQEND
  8
VIRTUAL_SEGMENT_LOT
  0
POLYLINE
  8
BDRY_TWP_LOT-SURVEYED
 66
     1
 62
     2
  6
DASHDOT2
  0
VERTEX
  8
BDRY_TWP_LOT-SURVEYED
 10
517187.00
 20
1145441.00
  0
VERTEX
  8
BDRY_TWP_LOT-SURVEYED
 10
517549.00
 20
1145447.00
  0
SEQEND
  8
BDRY_TWP_LOT-SURVEYED
  0
POLYLINE
  8
BDRY_TWP_LOT-SURVEYED
 66
     1
 62
     2
  6
DASHDOT2
  0
VERTEX
  8
BDRY_TWP_LOT-SURVEYED
 10
517161.00
 20
1147004.00
  0
VERTEX
  8
BDRY_TWP_LOT-SURVEYED
 10
517168.00
 20
1146572.00
  0
VERTEX
  8
BDRY_TWP_LOT-SURVEYED
 10
517187.00
 20
1145441.00
  0
SEQEND
  8
BDRY_TWP_LOT-SURVEYED
  0
POLYLINE
  8
BDRY_TWP_LOT-SURVEYED
 66
     1
 62
     2
  6
DASHDOT2
  0
VERTEX
  8
BDRY_TWP_LOT-SURVEYED
 10
516382.00
 20
1145426.00
  0
VERTEX
  8
BDRY_TWP_LOT-SURVEYED
 10
516587.00
 20
1145430.00
  0
VERTEX
  8
BDRY_TWP_LOT-SURVEYED
 10
517187.00
 20
1145441.00
  0
SEQEND
  8
BDRY_TWP_LOT-SURVEYED
  0
POLYLINE
  8
BDRY_TWP_LOT-SURVEYED
 66
     1
 62
     2
  6
DASHDOT2
  0
VERTEX
  8
BDRY_TWP_LOT-SURVEYED
 10
516338.00
 20
1145425.00
  0
VERTEX
  8
BDRY_TWP_LOT-SURVEYED
 10
516382.00
 20
1145426.00
  0
SEQEND
  8
BDRY_TWP_LOT-SURVEYED
  0
POLYLINE
  8
BDRY_TWP_LOT_UNSURVEYED
 66
     1
 62
     2
  6
DIVIDE
  0
VERTEX
  8
BDRY_TWP_LOT_UNSURVEYED
 10
516337.00
 20
1145502.00
  0
VERTEX
  8
BDRY_TWP_LOT_UNSURVEYED
 10
516338.00
 20
1145425.00
  0
SEQEND
  8
BDRY_TWP_LOT_UNSURVEYED
  0
POLYLINE
  8
BDRY_TWP_LOT-SURVEYED
 66
     1
 62
     2
  6
DASHDOT2
  0
VERTEX
  8
BDRY_TWP_LOT-SURVEYED
 10
515540.00
 20
1145408.00
  0
VERTEX
  8
BDRY_TWP_LOT-SURVEYED
 10
516338.00
 20
1145425.00
  0
SEQEND
  8
BDRY_TWP_LOT-SURVEYED
  0
POLYLINE
  8
BDRY_TWP_LOT-SURVEYED
 66
     1
 62
     2
  6
DASHDOT2
  0
VERTEX
  8
BDRY_TWP_LOT-SURVEYED
 10
515541.00
 20
1145732.00
  0
VERTEX
  8
BDRY_TWP_LOT-SURVEYED
 10
515540.00
 20
1145408.00
  0
SEQEND
  8
BDRY_TWP_LOT-SURVEYED
  0
POLYLINE
  8
BDRY_TWP_LOT_UNSURVEYED
 66
     1
 62
     2
  6
DIVIDE
  0
VERTEX
  8
BDRY_TWP_LOT_UNSURVEYED
 10
511508.00
 20
1146915.00
  0
VERTEX
  8
BDRY_TWP_LOT_UNSURVEYED
 10
511511.00
 20
1145724.00
  0
VERTEX
  8
BDRY_TWP_LOT_UNSURVEYED
 10
511512.00
 20
1145398.00
  0
SEQEND
  8
BDRY_TWP_LOT_UNSURVEYED
  0
POLYLINE
  8
BDRY_TWP_LOT-SURVEYED
 66
     1
 62
     2
  6
DASHDOT2
  0
VERTEX
  8
BDRY_TWP_LOT-SURVEYED
 10
511283.00
 20
1145399.00
  0
VERTEX
  8
BDRY_TWP_LOT-SURVEYED
 10
511512.00
 20
1145398.00
  0
SEQEND
  8
BDRY_TWP_LOT-SURVEYED
  0
POLYLINE
  8
BDRY_TWP_LOT-SURVEYED
 66
     1
 62
     2
  6
DASHDOT2
  0
VERTEX
  8
BDRY_TWP_LOT-SURVEYED
 10
514732.00
 20
1145397.00
  0
VERTEX
  8
BDRY_TWP_LOT-SURVEYED
 10
515215.00
 20
1145401.00
  0
VERTEX
  8
BDRY_TWP_LOT-SURVEYED
 10
515540.00
 20
1145408.00
  0
SEQEND
  8
BDRY_TWP_LOT-SURVEYED
  0
POLYLINE
  8
BDRY_TWP_LOT_UNSURVEYED
 66
     1
 62
     2
  6
DIVIDE
  0
VERTEX
  8
BDRY_TWP_LOT_UNSURVEYED
 10
514739.00
 20
1146812.00
  0
VERTEX
  8
BDRY_TWP_LOT_UNSURVEYED
 10
514736.00
 20
1146193.00
  0
VERTEX
  8
BDRY_TWP_LOT_UNSURVEYED
 10
514737.00
 20
1145904.00
  0
VERTEX
  8
BDRY_TWP_LOT_UNSURVEYED
 10
514732.00
 20
1145397.00
  0
SEQEND
  8
BDRY_TWP_LOT_UNSURVEYED
  0
POLYLINE
  8
VIRTUAL_SEGMENT_LOT
 66
     1
 62
    14
  6
CONTINUOUS
  0
VERTEX
  8
VIRTUAL_SEGMENT_LOT
 10
510961.00
 20
1145395.00
  0
VERTEX
  8
VIRTUAL_SEGMENT_LOT
 10
511283.00
 20
1145399.00
  0
SEQEND
  8
VIRTUAL_SEGMENT_LOT
  0
POLYLINE
  8
BDRY_TWP_LOT-SURVEYED
 66
     1
 62
     2
  6
DASHDOT2
  0
VERTEX
  8
BDRY_TWP_LOT-SURVEYED
 10
512319.00
 20
1147009.00
  0
VERTEX
  8
BDRY_TWP_LOT-SURVEYED
 10
512317.00
 20
1145775.00
  0
VERTEX
  8
BDRY_TWP_LOT-SURVEYED
 10
512315.00
 20
1145395.00
  0
SEQEND
  8
BDRY_TWP_LOT-SURVEYED
  0
POLYLINE
  8
BDRY_TWP_LOT-SURVEYED
 66
     1
 62
     2
  6
DASHDOT2
  0
VERTEX
  8
BDRY_TWP_LOT-SURVEYED
 10
511512.00
 20
1145398.00
  0
VERTEX
  8
BDRY_TWP_LOT-SURVEYED
 10
512032.00
 20
1145397.00
  0
VERTEX
  8
BDRY_TWP_LOT-SURVEYED
 10
512315.00
 20
1145395.00
  0
SEQEND
  8
BDRY_TWP_LOT-SURVEYED
  0
POLYLINE
  8
VIRTUAL_SEGMENT_LOT
 66
     1
 62
    14
  6
CONTINUOUS
  0
VERTEX
  8
VIRTUAL_SEGMENT_LOT
 10
512648.00
 20
1145393.00
  0
VERTEX
  8
VIRTUAL_SEGMENT_LOT
 10
512691.00
 20
1145395.00
  0
SEQEND
  8
VIRTUAL_SEGMENT_LOT
  0
POLYLINE
  8
BDRY_TWP_LOT-SURVEYED
 66
     1
 62
     2
  6
DASHDOT2
  0
VERTEX
  8
BDRY_TWP_LOT-SURVEYED
 10
512315.00
 20
1145395.00
  0
VERTEX
  8
BDRY_TWP_LOT-SURVEYED
 10
512648.00
 20
1145393.00
  0
SEQEND
  8
BDRY_TWP_LOT-SURVEYED
  0
POLYLINE
  8
BDRY_TWP_LOT_UNSURVEYED
 66
     1
 62
     2
  6
DIVIDE
  0
VERTEX
  8
BDRY_TWP_LOT_UNSURVEYED
 10
513116.00
 20
1145715.00
  0
VERTEX
  8
BDRY_TWP_LOT_UNSURVEYED
 10
513115.00
 20
1145393.00
  0
SEQEND
  8
BDRY_TWP_LOT_UNSURVEYED
  0
POLYLINE
  8
BDRY_TWP_LOT-SURVEYED
 66
     1
 62
     2
  6
DASHDOT2
  0
VERTEX
  8
BDRY_TWP_LOT-SURVEYED
 10
512691.00
 20
1145395.00
  0
VERTEX
  8
BDRY_TWP_LOT-SURVEYED
 10
513115.00
 20
1145393.00
  0
SEQEND
  8
BDRY_TWP_LOT-SURVEYED
  0
POLYLINE
  8
BDRY_TWP_LOT-SURVEYED
 66
     1
 62
     2
  6
DASHDOT2
  0
VERTEX
  8
BDRY_TWP_LOT-SURVEYED
 10
513940.00
 20
1145389.00
  0
VERTEX
  8
BDRY_TWP_LOT-SURVEYED
 10
514732.00
 20
1145397.00
  0
SEQEND
  8
BDRY_TWP_LOT-SURVEYED
  0
POLYLINE
  8
BDRY_TWP
 66
     1
 62
     4
  6
CONTINUOUS
  0
VERTEX
  8
BDRY_TWP
 10
513940.00
 20
1147029.00
  0
VERTEX
  8
BDRY_TWP
 10
513942.00
 20
1146793.00
  0
VERTEX
  8
BDRY_TWP
 10
513941.00
 20
1145642.00
  0
VERTEX
  8
BDRY_TWP
 10
513940.00
 20
1145389.00
  0
SEQEND
  8
BDRY_TWP
  0
POLYLINE
  8
BDRY_TWP_LOT-SURVEYED
 66
     1
 62
     2
  6
DASHDOT2
  0
VERTEX
  8
BDRY_TWP_LOT-SURVEYED
 10
513115.00
 20
1145393.00
  0
VERTEX
  8
BDRY_TWP_LOT-SURVEYED
 10
513417.00
 20
1145391.00
  0
VERTEX
  8
BDRY_TWP_LOT-SURVEYED
 10
513936.00
 20
1145389.00
  0
VERTEX
  8
BDRY_TWP_LOT-SURVEYED
 10
513940.00
 20
1145389.00
  0
SEQEND
  8
BDRY_TWP_LOT-SURVEYED
  0
POLYLINE
  8
BDRY_TWP_LOT_UNSURVEYED
 66
     1
 62
     2
  6
DIVIDE
  0
VERTEX
  8
BDRY_TWP_LOT_UNSURVEYED
 10
517946.00
 20
1145455.00
  0
VERTEX
  8
BDRY_TWP_LOT_UNSURVEYED
 10
517943.00
 20
1145257.00
  0
SEQEND
  8
BDRY_TWP_LOT_UNSURVEYED
  0
POLYLINE
  8
VIRTUAL_SEGMENT_LOT
 66
     1
 62
    14
  6
CONTINUOUS
  0
VERTEX
  8
VIRTUAL_SEGMENT_LOT
 10
517943.00
 20
1145257.00
  0
VERTEX
  8
VIRTUAL_SEGMENT_LOT
 10
517942.00
 20
1145218.00
  0
SEQEND
  8
VIRTUAL_SEGMENT_LOT
  0
POLYLINE
  8
BDRY_TWP_LOT_UNSURVEYED
 66
     1
 62
     2
  6
DIVIDE
  0
VERTEX
  8
BDRY_TWP_LOT_UNSURVEYED
 10
517942.00
 20
1145218.00
  0
VERTEX
  8
BDRY_TWP_LOT_UNSURVEYED
 10
517941.00
 20
1145171.00
  0
SEQEND
  8
BDRY_TWP_LOT_UNSURVEYED
  0
POLYLINE
  8
BDRY_TWP_LOT-SURVEYED
 66
     1
 62
     2
  6
DASHDOT2
  0
VERTEX
  8
BDRY_TWP_LOT-SURVEYED
 10
512315.00
 20
1145395.00
  0
VERTEX
  8
BDRY_TWP_LOT-SURVEYED
 10
512314.00
 20
1145129.00
  0
SEQEND
  8
BDRY_TWP_LOT-SURVEYED
  0
POLYLINE
  8
VIRTUAL_SEGMENT_LOT
 66
     1
 62
    14
  6
CONTINUOUS
  0
VERTEX
  8
VIRTUAL_SEGMENT_LOT
 10
517941.00
 20
1145171.00
  0
VERTEX
  8
VIRTUAL_SEGMENT_LOT
 10
517940.00
 20
1145122.00
  0
SEQEND
  8
VIRTUAL_SEGMENT_LOT
  0
POLYLINE
  8
VIRTUAL_SEGMENT_LOT
 66
     1
 62
    14
  6
CONTINUOUS
  0
VERTEX
  8
VIRTUAL_SEGMENT_LOT
 10
512314.00
 20
1145129.00
  0
VERTEX
  8
VIRTUAL_SEGMENT_LOT
 10
512318.00
 20
1145073.00
  0
SEQEND
  8
VIRTUAL_SEGMENT_LOT
  0
POLYLINE
  8
VIRTUAL_SEGMENT_LOT
 66
     1
 62
    14
  6
CONTINUOUS
  0
VERTEX
  8
VIRTUAL_SEGMENT_LOT
 10
519529.00
 20
1144865.00
  0
VERTEX
  8
VIRTUAL_SEGMENT_LOT
 10
519529.00
 20
1144853.00
  0
SEQEND
  8
VIRTUAL_SEGMENT_LOT
  0
POLYLINE
  8
BDRY_TWP_LOT_UNSURVEYED
 66
     1
 62
     2
  6
DIVIDE
  0
VERTEX
  8
BDRY_TWP_LOT_UNSURVEYED
 10
514732.00
 20
1145397.00
  0
VERTEX
  8
BDRY_TWP_LOT_UNSURVEYED
 10
514731.00
 20
1145256.00
  0
VERTEX
  8
BDRY_TWP_LOT_UNSURVEYED
 10
514735.00
 20
1144158.00
  0
VERTEX
  8
BDRY_TWP_LOT_UNSURVEYED
 10
514734.00
 20
1144038.00
  0
SEQEND
  8
BDRY_TWP_LOT_UNSURVEYED
  0
POLYLINE
  8
VIRTUAL_SEGMENT_LOT
 66
     1
 62
    14
  6
CONTINUOUS
  0
VERTEX
  8
VIRTUAL_SEGMENT_LOT
 10
514734.00
 20
1144038.00
  0
VERTEX
  8
VIRTUAL_SEGMENT_LOT
 10
514734.00
 20
1144011.00
  0
SEQEND
  8
VIRTUAL_SEGMENT_LOT
  0
POLYLINE
  8
BDRY_TWP_LOT_UNSURVEYED
 66
     1
 62
     2
  6
DIVIDE
  0
VERTEX
  8
BDRY_TWP_LOT_UNSURVEYED
 10
514734.00
 20
1144011.00
  0
VERTEX
  8
BDRY_TWP_LOT_UNSURVEYED
 10
514733.00
 20
1143978.00
  0
SEQEND
  8
BDRY_TWP_LOT_UNSURVEYED
  0
POLYLINE
  8
BDRY_TWP_LOT_UNSURVEYED
 66
     1
 62
     2
  6
DIVIDE
  0
VERTEX
  8
BDRY_TWP_LOT_UNSURVEYED
 10
511512.00
 20
1145398.00
  0
VERTEX
  8
BDRY_TWP_LOT_UNSURVEYED
 10
511515.00
 20
1144502.00
  0
VERTEX
  8
BDRY_TWP_LOT_UNSURVEYED
 10
511516.00
 20
1143974.00
  0
SEQEND
  8
BDRY_TWP_LOT_UNSURVEYED
  0
POLYLINE
  8
VIRTUAL_SEGMENT_LOT
 66
     1
 62
    14
  6
CONTINUOUS
  0
VERTEX
  8
VIRTUAL_SEGMENT_LOT
 10
514733.00
 20
1143978.00
  0
VERTEX
  8
VIRTUAL_SEGMENT_LOT
 10
514733.00
 20
1143947.00
  0
SEQEND
  8
VIRTUAL_SEGMENT_LOT
  0
POLYLINE
  8
VIRTUAL_SEGMENT_LOT
 66
     1
 62
    14
  6
CONTINUOUS
  0
VERTEX
  8
VIRTUAL_SEGMENT_LOT
 10
511516.00
 20
1143974.00
  0
VERTEX
  8
VIRTUAL_SEGMENT_LOT
 10
511517.00
 20
1143865.00
  0
SEQEND
  8
VIRTUAL_SEGMENT_LOT
  0
POLYLINE
  8
BDRY_TWP_LOT-SURVEYED
 66
     1
 62
     2
  6
DASHDOT2
  0
VERTEX
  8
BDRY_TWP_LOT-SURVEYED
 10
510708.00
 20
1145351.00
  0
VERTEX
  8
BDRY_TWP_LOT-SURVEYED
 10
510710.00
 20
1143792.00
  0
SEQEND
  8
BDRY_TWP_LOT-SURVEYED
  0
POLYLINE
  8
BDRY_TWP
 66
     1
 62
     4
  6
CONTINUOUS
  0
VERTEX
  8
BDRY_TWP
 10
510710.00
 20
1143792.00
  0
VERTEX
  8
BDRY_TWP
 10
510729.00
 20
1143792.00
  0
SEQEND
  8
BDRY_TWP
  0
POLYLINE
  8
BDRY_TWP
 66
     1
 62
     4
  6
CONTINUOUS
  0
VERTEX
  8
BDRY_TWP
 10
510729.00
 20
1143792.00
  0
VERTEX
  8
BDRY_TWP
 10
511024.00
 20
1143792.00
  0
SEQEND
  8
BDRY_TWP
  0
POLYLINE
  8
VIRTUAL_SEGMENT_TOWNSHIP
 66
     1
 62
    14
  6
CONTINUOUS
  0
VERTEX
  8
VIRTUAL_SEGMENT_TOWNSHIP
 10
511024.00
 20
1143792.00
  0
VERTEX
  8
VIRTUAL_SEGMENT_TOWNSHIP
 10
511071.00
 20
1143791.00
  0
SEQEND
  8
VIRTUAL_SEGMENT_TOWNSHIP
  0
POLYLINE
  8
BDRY_TWP_LOT_UNSURVEYED
 66
     1
 62
     2
  6
DIVIDE
  0
VERTEX
  8
BDRY_TWP_LOT_UNSURVEYED
 10
511517.00
 20
1143865.00
  0
VERTEX
  8
BDRY_TWP_LOT_UNSURVEYED
 10
511516.00
 20
1143791.00
  0
SEQEND
  8
BDRY_TWP_LOT_UNSURVEYED
  0
POLYLINE
  8
BDRY_TWP
 66
     1
 62
     4
  6
CONTINUOUS
  0
VERTEX
  8
BDRY_TWP
 10
511071.00
 20
1143791.00
  0
VERTEX
  8
BDRY_TWP
 10
511516.00
 20
1143791.00
  0
SEQEND
  8
BDRY_TWP
  0
POLYLINE
  8
BDRY_TWP
 66
     1
 62
     4
  6
CONTINUOUS
  0
VERTEX
  8
BDRY_TWP
 10
511516.00
 20
1143791.00
  0
VERTEX
  8
BDRY_TWP
 10
511697.00
 20
1143791.00
  0
SEQEND
  8
BDRY_TWP
  0
POLYLINE
  8
VIRTUAL_SEGMENT_TOWNSHIP
 66
     1
 62
    14
  6
CONTINUOUS
  0
VERTEX
  8
VIRTUAL_SEGMENT_TOWNSHIP
 10
511697.00
 20
1143791.00
  0
VERTEX
  8
VIRTUAL_SEGMENT_TOWNSHIP
 10
511817.00
 20
1143791.00
  0
SEQEND
  8
VIRTUAL_SEGMENT_TOWNSHIP
  0
POLYLINE
  8
BDRY_TWP
 66
     1
 62
     4
  6
CONTINUOUS
  0
VERTEX
  8
BDRY_TWP
 10
511817.00
 20
1143791.00
  0
VERTEX
  8
BDRY_TWP
 10
511843.00
 20
1143791.00
  0
SEQEND
  8
BDRY_TWP
  0
POLYLINE
  8
VIRTUAL_SEGMENT_TOWNSHIP
 66
     1
 62
    14
  6
CONTINUOUS
  0
VERTEX
  8
VIRTUAL_SEGMENT_TOWNSHIP
 10
511843.00
 20
1143791.00
  0
VERTEX
  8
VIRTUAL_SEGMENT_TOWNSHIP
 10
511924.00
 20
1143791.00
  0
SEQEND
  8
VIRTUAL_SEGMENT_TOWNSHIP
  0
POLYLINE
  8
BDRY_TWP_LOT-SURVEYED
 66
     1
 62
     2
  6
DASHDOT2
  0
VERTEX
  8
BDRY_TWP_LOT-SURVEYED
 10
512318.00
 20
1145073.00
  0
VERTEX
  8
BDRY_TWP_LOT-SURVEYED
 10
512316.00
 20
1144493.00
  0
VERTEX
  8
BDRY_TWP_LOT-SURVEYED
 10
512314.00
 20
1143791.00
  0
SEQEND
  8
BDRY_TWP_LOT-SURVEYED
  0
POLYLINE
  8
BDRY_TWP
 66
     1
 62
     4
  6
CONTINUOUS
  0
VERTEX
  8
BDRY_TWP
 10
511924.00
 20
1143791.00
  0
VERTEX
  8
BDRY_TWP
 10
512314.00
 20
1143791.00
  0
SEQEND
  8
BDRY_TWP
  0
POLYLINE
  8
BDRY_TWP
 66
     1
 62
     4
  6
CONTINUOUS
  0
VERTEX
  8
BDRY_TWP
 10
512314.00
 20
1143791.00
  0
VERTEX
  8
BDRY_TWP
 10
512317.00
 20
1143791.00
  0
VERTEX
  8
BDRY_TWP
 10
512356.00
 20
1143791.00
  0
SEQEND
  8
BDRY_TWP
  0
POLYLINE
  8
BDRY_TWP_LOT_UNSURVEYED
 66
     1
 62
     2
  6
DIVIDE
  0
VERTEX
  8
BDRY_TWP_LOT_UNSURVEYED
 10
513115.00
 20
1145393.00
  0
VERTEX
  8
BDRY_TWP_LOT_UNSURVEYED
 10
513114.00
 20
1145295.00
  0
VERTEX
  8
BDRY_TWP_LOT_UNSURVEYED
 10
513121.00
 20
1143789.00
  0
SEQEND
  8
BDRY_TWP_LOT_UNSURVEYED
  0
POLYLINE
  8
BDRY_TWP
 66
     1
 62
     4
  6
CONTINUOUS
  0
VERTEX
  8
BDRY_TWP
 10
512356.00
 20
1143791.00
  0
VERTEX
  8
BDRY_TWP
 10
513121.00
 20
1143789.00
  0
SEQEND
  8
BDRY_TWP
  0
POLYLINE
  8
BDRY_TWP
 66
     1
 62
     4
  6
CONTINUOUS
  0
VERTEX
  8
BDRY_TWP
 10
513121.00
 20
1143789.00
  0
VERTEX
  8
BDRY_TWP
 10
513197.00
 20
1143789.00
  0
SEQEND
  8
BDRY_TWP
  0
POLYLINE
  8
BDRY_TWP
 66
     1
 62
     4
  6
CONTINUOUS
  0
VERTEX
  8
BDRY_TWP
 10
513940.00
 20
1145389.00
  0
VERTEX
  8
BDRY_TWP
 10
513934.00
 20
1144478.00
  0
VERTEX
  8
BDRY_TWP
 10
513933.00
 20
1143787.00
  0
SEQEND
  8
BDRY_TWP
  0
POLYLINE
  8
BDRY_TWP
 66
     1
 62
     4
  6
CONTINUOUS
  0
VERTEX
  8
BDRY_TWP
 10
513197.00
 20
1143789.00
  0
VERTEX
  8
BDRY_TWP
 10
513357.00
 20
1143788.00
  0
VERTEX
  8
BDRY_TWP
 10
513933.00
 20
1143787.00
  0
SEQEND
  8
BDRY_TWP
  0
POLYLINE
  8
BDRY_TWP
 66
     1
 62
     4
  6
CONTINUOUS
  0
VERTEX
  8
BDRY_TWP
 10
513933.00
 20
1143787.00
  0
VERTEX
  8
BDRY_TWP
 10
514168.00
 20
1143786.00
  0
SEQEND
  8
BDRY_TWP
  0
POLYLINE
  8
VIRTUAL_SEGMENT_TOWNSHIP
 66
     1
 62
    14
  6
CONTINUOUS
  0
VERTEX
  8
VIRTUAL_SEGMENT_TOWNSHIP
 10
514168.00
 20
1143786.00
  0
VERTEX
  8
VIRTUAL_SEGMENT_TOWNSHIP
 10
514200.00
 20
1143786.00
  0
SEQEND
  8
VIRTUAL_SEGMENT_TOWNSHIP
  0
POLYLINE
  8
BDRY_TWP_LOT_UNSURVEYED
 66
     1
 62
     2
  6
DIVIDE
  0
VERTEX
  8
BDRY_TWP_LOT_UNSURVEYED
 10
514733.00
 20
1143947.00
  0
VERTEX
  8
BDRY_TWP_LOT_UNSURVEYED
 10
514732.00
 20
1143784.00
  0
SEQEND
  8
BDRY_TWP_LOT_UNSURVEYED
  0
POLYLINE
  8
BDRY_TWP
 66
     1
 62
     4
  6
CONTINUOUS
  0
VERTEX
  8
BDRY_TWP
 10
514200.00
 20
1143786.00
  0
VERTEX
  8
BDRY_TWP
 10
514643.00
 20
1143785.00
  0
VERTEX
  8
BDRY_TWP
 10
514732.00
 20
1143784.00
  0
SEQEND
  8
BDRY_TWP
  0
POLYLINE
  8
BDRY_TWP
 66
     1
 62
     4
  6
CONTINUOUS
  0
VERTEX
  8
BDRY_TWP
 10
514732.00
 20
1143784.00
  0
VERTEX
  8
BDRY_TWP
 10
515025.00
 20
1143783.00
  0
SEQEND
  8
BDRY_TWP
  0
POLYLINE
  8
VIRTUAL_SEGMENT_TOWNSHIP
 66
     1
 62
    14
  6
CONTINUOUS
  0
VERTEX
  8
VIRTUAL_SEGMENT_TOWNSHIP
 10
515025.00
 20
1143783.00
  0
VERTEX
  8
VIRTUAL_SEGMENT_TOWNSHIP
 10
515155.00
 20
1143782.00
  0
SEQEND
  8
VIRTUAL_SEGMENT_TOWNSHIP
  0
POLYLINE
  8
BDRY_TWP
 66
     1
 62
     4
  6
CONTINUOUS
  0
VERTEX
  8
BDRY_TWP
 10
515155.00
 20
1143782.00
  0
VERTEX
  8
BDRY_TWP
 10
515416.00
 20
1143781.00
  0
SEQEND
  8
BDRY_TWP
  0
POLYLINE
  8
VIRTUAL_SEGMENT_TOWNSHIP
 66
     1
 62
    14
  6
CONTINUOUS
  0
VERTEX
  8
VIRTUAL_SEGMENT_TOWNSHIP
 10
515416.00
 20
1143781.00
  0
VERTEX
  8
VIRTUAL_SEGMENT_TOWNSHIP
 10
515431.00
 20
1143781.00
  0
SEQEND
  8
VIRTUAL_SEGMENT_TOWNSHIP
  0
POLYLINE
  8
BDRY_TWP
 66
     1
 62
     4
  6
CONTINUOUS
  0
VERTEX
  8
BDRY_TWP
 10
515431.00
 20
1143781.00
  0
VERTEX
  8
BDRY_TWP
 10
515495.00
 20
1143781.00
  0
SEQEND
  8
BDRY_TWP
  0
POLYLINE
  8
BDRY_TWP_LOT-SURVEYED
 66
     1
 62
     2
  6
DASHDOT2
  0
VERTEX
  8
BDRY_TWP_LOT-SURVEYED
 10
515540.00
 20
1145408.00
  0
VERTEX
  8
BDRY_TWP_LOT-SURVEYED
 10
515540.00
 20
1145234.00
  0
VERTEX
  8
BDRY_TWP_LOT-SURVEYED
 10
515541.00
 20
1144364.00
  0
VERTEX
  8
BDRY_TWP_LOT-SURVEYED
 10
515543.00
 20
1143780.00
  0
SEQEND
  8
BDRY_TWP_LOT-SURVEYED
  0
POLYLINE
  8
BDRY_TWP
 66
     1
 62
     4
  6
CONTINUOUS
  0
VERTEX
  8
BDRY_TWP
 10
515495.00
 20
1143781.00
  0
VERTEX
  8
BDRY_TWP
 10
515543.00
 20
1143780.00
  0
SEQEND
  8
BDRY_TWP
  0
POLYLINE
  8
BDRY_TWP
 66
     1
 62
     4
  6
CONTINUOUS
  0
VERTEX
  8
BDRY_TWP
 10
515543.00
 20
1143780.00
  0
VERTEX
  8
BDRY_TWP
 10
516066.00
 20
1143778.00
  0
VERTEX
  8
BDRY_TWP
 10
516255.00
 20
1143777.00
  0
SEQEND
  8
BDRY_TWP
  0
POLYLINE
  8
BDRY_TWP_LOT_UNSURVEYED
 66
     1
 62
     2
  6
DIVIDE
  0
VERTEX
  8
BDRY_TWP_LOT_UNSURVEYED
 10
516382.00
 20
1145426.00
  0
VERTEX
  8
BDRY_TWP_LOT_UNSURVEYED
 10
516362.00
 20
1144750.00
  0
VERTEX
  8
BDRY_TWP_LOT_UNSURVEYED
 10
516347.00
 20
1144227.00
  0
VERTEX
  8
BDRY_TWP_LOT_UNSURVEYED
 10
516338.00
 20
1143777.00
  0
SEQEND
  8
BDRY_TWP_LOT_UNSURVEYED
  0
POLYLINE
  8
BDRY_TWP
 66
     1
 62
     4
  6
CONTINUOUS
  0
VERTEX
  8
BDRY_TWP
 10
516255.00
 20
1143777.00
  0
VERTEX
  8
BDRY_TWP
 10
516338.00
 20
1143777.00
  0
SEQEND
  8
BDRY_TWP
  0
POLYLINE
  8
BDRY_TWP
 66
     1
 62
     4
  6
CONTINUOUS
  0
VERTEX
  8
BDRY_TWP
 10
516338.00
 20
1143777.00
  0
VERTEX
  8
BDRY_TWP
 10
517061.00
 20
1143774.00
  0
SEQEND
  8
BDRY_TWP
  0
POLYLINE
  8
BDRY_TWP_LOT-SURVEYED
 66
     1
 62
     2
  6
DASHDOT2
  0
VERTEX
  8
BDRY_TWP_LOT-SURVEYED
 10
517187.00
 20
1145441.00
  0
VERTEX
  8
BDRY_TWP_LOT-SURVEYED
 10
517158.00
 20
1144698.00
  0
VERTEX
  8
BDRY_TWP_LOT-SURVEYED
 10
517124.00
 20
1143773.00
  0
SEQEND
  8
BDRY_TWP_LOT-SURVEYED
  0
POLYLINE
  8
BDRY_TWP
 66
     1
 62
     4
  6
CONTINUOUS
  0
VERTEX
  8
BDRY_TWP
 10
517061.00
 20
1143774.00
  0
VERTEX
  8
BDRY_TWP
 10
517124.00
 20
1143773.00
  0
SEQEND
  8
BDRY_TWP
  0
POLYLINE
  8
BDRY_TWP
 66
     1
 62
     4
  6
CONTINUOUS
  0
VERTEX
  8
BDRY_TWP
 10
517124.00
 20
1143773.00
  0
VERTEX
  8
BDRY_TWP
 10
517467.00
 20
1143772.00
  0
VERTEX
  8
BDRY_TWP
 10
517851.00
 20
1143766.00
  0
SEQEND
  8
BDRY_TWP
  0
POLYLINE
  8
BDRY_TWP_LOT_UNSURVEYED
 66
     1
 62
     2
  6
DIVIDE
  0
VERTEX
  8
BDRY_TWP_LOT_UNSURVEYED
 10
517940.00
 20
1145122.00
  0
VERTEX
  8
BDRY_TWP_LOT_UNSURVEYED
 10
517930.00
 20
1144519.00
  0
VERTEX
  8
BDRY_TWP_LOT_UNSURVEYED
 10
517921.00
 20
1143765.00
  0
SEQEND
  8
BDRY_TWP_LOT_UNSURVEYED
  0
POLYLINE
  8
BDRY_TWP
 66
     1
 62
     4
  6
CONTINUOUS
  0
VERTEX
  8
BDRY_TWP
 10
517851.00
 20
1143766.00
  0
VERTEX
  8
BDRY_TWP
 10
517921.00
 20
1143765.00
  0
SEQEND
  8
BDRY_TWP
  0
POLYLINE
  8
BDRY_TWP
 66
     1
 62
     4
  6
CONTINUOUS
  0
VERTEX
  8
BDRY_TWP
 10
517921.00
 20
1143765.00
  0
VERTEX
  8
BDRY_TWP
 10
518650.00
 20
1143755.00
  0
SEQEND
  8
BDRY_TWP
  0
POLYLINE
  8
BDRY_TWP_LOT-SURVEYED
 66
     1
 62
     2
  6
DASHDOT2
  0
VERTEX
  8
BDRY_TWP_LOT-SURVEYED
 10
518739.00
 20
1145465.00
  0
VERTEX
  8
BDRY_TWP_LOT-SURVEYED
 10
518733.00
 20
1144562.00
  0
VERTEX
  8
BDRY_TWP_LOT-SURVEYED
 10
518727.00
 20
1143754.00
  0
SEQEND
  8
BDRY_TWP_LOT-SURVEYED
  0
POLYLINE
  8
BDRY_TWP
 66
     1
 62
     4
  6
CONTINUOUS
  0
VERTEX
  8
BDRY_TWP
 10
518650.00
 20
1143755.00
  0
VERTEX
  8
BDRY_TWP
 10
518727.00
 20
1143754.00
  0
SEQEND
  8
BDRY_TWP
  0
POLYLINE
  8
BDRY_TWP
 66
     1
 62
     4
  6
CONTINUOUS
  0
VERTEX
  8
BDRY_TWP
 10
518727.00
 20
1143754.00
  0
VERTEX
  8
BDRY_TWP
 10
518817.00
 20
1143752.00
  0
VERTEX
  8
BDRY_TWP
 10
519456.00
 20
1143745.00
  0
SEQEND
  8
BDRY_TWP
  0
POLYLINE
  8
BDRY_TWP_LOT-SURVEYED
 66
     1
 62
     2
  6
DASHDOT2
  0
VERTEX
  8
BDRY_TWP_LOT-SURVEYED
 10
518650.00
 20
1143755.00
  0
VERTEX
  8
BDRY_TWP_LOT-SURVEYED
 10
518651.00
 20
1143585.00
  0
SEQEND
  8
BDRY_TWP_LOT-SURVEYED
  0
POLYLINE
  8
BDRY_TWP_LOT_UNSURVEYED
 66
     1
 62
     2
  6
DIVIDE
  0
VERTEX
  8
BDRY_TWP_LOT_UNSURVEYED
 10
517851.00
 20
1143766.00
  0
VERTEX
  8
BDRY_TWP_LOT_UNSURVEYED
 10
517856.00
 20
1143559.00
  0
SEQEND
  8
BDRY_TWP_LOT_UNSURVEYED
  0
POLYLINE
  8
VIRTUAL_SEGMENT_LOT
 66
     1
 62
    14
  6
CONTINUOUS
  0
VERTEX
  8
VIRTUAL_SEGMENT_LOT
 10
510072.00
 20
1143616.00
  0
VERTEX
  8
VIRTUAL_SEGMENT_LOT
 10
510072.00
 20
1143505.00
  0
SEQEND
  8
VIRTUAL_SEGMENT_LOT
  0
POLYLINE
  8
VIRTUAL_SEGMENT_LOT
 66
     1
 62
    14
  6
CONTINUOUS
  0
VERTEX
  8
VIRTUAL_SEGMENT_LOT
 10
518651.00
 20
1143585.00
  0
VERTEX
  8
VIRTUAL_SEGMENT_LOT
 10
518654.00
 20
1143500.00
  0
SEQEND
  8
VIRTUAL_SEGMENT_LOT
  0
POLYLINE
  8
VIRTUAL_SEGMENT_LOT
 66
     1
 62
    14
  6
CONTINUOUS
  0
VERTEX
  8
VIRTUAL_SEGMENT_LOT
 10
517856.00
 20
1143559.00
  0
VERTEX
  8
VIRTUAL_SEGMENT_LOT
 10
517858.00
 20
1143491.00
  0
SEQEND
  8
VIRTUAL_SEGMENT_LOT
  0
POLYLINE
  8
BDRY_TWP_LOT_UNSURVEYED
 66
     1
 62
     2
  6
DIVIDE
  0
VERTEX
  8
BDRY_TWP_LOT_UNSURVEYED
 10
514732.00
 20
1143784.00
  0
VERTEX
  8
BDRY_TWP_LOT_UNSURVEYED
 10
514728.00
 20
1143450.00
  0
SEQEND
  8
BDRY_TWP_LOT_UNSURVEYED
  0
POLYLINE
  8
VIRTUAL_SEGMENT_LOT
 66
     1
 62
    14
  6
CONTINUOUS
  0
VERTEX
  8
VIRTUAL_SEGMENT_LOT
 10
514728.00
 20
1143450.00
  0
VERTEX
  8
VIRTUAL_SEGMENT_LOT
 10
514730.00
 20
1143398.00
  0
SEQEND
  8
VIRTUAL_SEGMENT_LOT
  0
POLYLINE
  8
BDRY_TWP_LOT-SURVEYED
 66
     1
 62
     2
  6
DASHDOT2
  0
VERTEX
  8
BDRY_TWP_LOT-SURVEYED
 10
517061.00
 20
1143774.00
  0
VERTEX
  8
BDRY_TWP_LOT-SURVEYED
 10
517068.00
 20
1143376.00
  0
SEQEND
  8
BDRY_TWP_LOT-SURVEYED
  0
POLYLINE
  8
VIRTUAL_SEGMENT_LOT
 66
     1
 62
    14
  6
CONTINUOUS
  0
VERTEX
  8
VIRTUAL_SEGMENT_LOT
 10
517068.00
 20
1143376.00
  0
VERTEX
  8
VIRTUAL_SEGMENT_LOT
 10
517070.00
 20
1143313.00
  0
SEQEND
  8
VIRTUAL_SEGMENT_LOT
  0
POLYLINE
  8
BDRY_TWP_LOT-SURVEYED
 66
     1
 62
     2
  6
DASHDOT2
  0
VERTEX
  8
BDRY_TWP_LOT-SURVEYED
 10
518654.00
 20
1143500.00
  0
VERTEX
  8
BDRY_TWP_LOT-SURVEYED
 10
518666.00
 20
1142933.00
  0
SEQEND
  8
BDRY_TWP_LOT-SURVEYED
  0
POLYLINE
  8
VIRTUAL_SEGMENT_LOT
 66
     1
 62
    14
  6
CONTINUOUS
  0
VERTEX
  8
VIRTUAL_SEGMENT_LOT
 10
518666.00
 20
1142933.00
  0
VERTEX
  8
VIRTUAL_SEGMENT_LOT
 10
518666.00
 20
1142926.00
  0
SEQEND
  8
VIRTUAL_SEGMENT_LOT
  0
POLYLINE
  8
BDRY_TWP_LOT-SURVEYED
 66
     1
 62
     2
  6
DASHDOT2
  0
VERTEX
  8
BDRY_TWP_LOT-SURVEYED
 10
510729.00
 20
1143792.00
  0
VERTEX
  8
BDRY_TWP_LOT-SURVEYED
 10
510711.00
 20
1142918.00
  0
SEQEND
  8
BDRY_TWP_LOT-SURVEYED
  0
POLYLINE
  8
VIRTUAL_SEGMENT_LOT
 66
     1
 62
    14
  6
CONTINUOUS
  0
VERTEX
  8
VIRTUAL_SEGMENT_LOT
 10
510711.00
 20
1142918.00
  0
VERTEX
  8
VIRTUAL_SEGMENT_LOT
 10
510710.00
 20
1142894.00
  0
SEQEND
  8
VIRTUAL_SEGMENT_LOT
  0
POLYLINE
  8
BDRY_TWP_LOT_UNSURVEYED
 66
     1
 62
     2
  6
DIVIDE
  0
VERTEX
  8
BDRY_TWP_LOT_UNSURVEYED
 10
517858.00
 20
1143491.00
  0
VERTEX
  8
BDRY_TWP_LOT_UNSURVEYED
 10
517876.00
 20
1142707.00
  0
SEQEND
  8
BDRY_TWP_LOT_UNSURVEYED
  0
POLYLINE
  8
VIRTUAL_SEGMENT_LOT
 66
     1
 62
    14
  6
CONTINUOUS
  0
VERTEX
  8
VIRTUAL_SEGMENT_LOT
 10
517876.00
 20
1142707.00
  0
VERTEX
  8
VIRTUAL_SEGMENT_LOT
 10
517878.00
 20
1142677.00
  0
SEQEND
  8
VIRTUAL_SEGMENT_LOT
  0
POLYLINE
  8
BDRY_TWP_LOT-SURVEYED
 66
     1
 62
     2
  6
DASHDOT2
  0
VERTEX
  8
BDRY_TWP_LOT-SURVEYED
 10
515495.00
 20
1143781.00
  0
VERTEX
  8
BDRY_TWP_LOT-SURVEYED
 10
515497.00
 20
1142665.00
  0
SEQEND
  8
BDRY_TWP_LOT-SURVEYED
  0
POLYLINE
  8
BDRY_TWP_LOT-SURVEYED
 66
     1
 62
     2
  6
DASHDOT2
  0
VERTEX
  8
BDRY_TWP_LOT-SURVEYED
 10
512356.00
 20
1143791.00
  0
VERTEX
  8
BDRY_TWP_LOT-SURVEYED
 10
512350.00
 20
1142789.00
  0
VERTEX
  8
BDRY_TWP_LOT-SURVEYED
 10
512349.00
 20
1142630.00
  0
SEQEND
  8
BDRY_TWP_LOT-SURVEYED
  0
POLYLINE
  8
VIRTUAL_SEGMENT_LOT
 66
     1
 62
    14
  6
CONTINUOUS
  0
VERTEX
  8
VIRTUAL_SEGMENT_LOT
 10
515497.00
 20
1142665.00
  0
VERTEX
  8
VIRTUAL_SEGMENT_LOT
 10
515497.00
 20
1142628.00
  0
SEQEND
  8
VIRTUAL_SEGMENT_LOT
  0
POLYLINE
  8
BDRY_TWP_LOT-SURVEYED
 66
     1
 62
     2
  6
DASHDOT2
  0
VERTEX
  8
BDRY_TWP_LOT-SURVEYED
 10
517070.00
 20
1143313.00
  0
VERTEX
  8
BDRY_TWP_LOT-SURVEYED
 10
517083.00
 20
1142620.00
  0
SEQEND
  8
BDRY_TWP_LOT-SURVEYED
  0
POLYLINE
  8
VIRTUAL_SEGMENT_LOT
 66
     1
 62
    14
  6
CONTINUOUS
  0
VERTEX
  8
VIRTUAL_SEGMENT_LOT
 10
512349.00
 20
1142630.00
  0
VERTEX
  8
VIRTUAL_SEGMENT_LOT
 10
512349.00
 20
1142597.00
  0
SEQEND
  8
VIRTUAL_SEGMENT_LOT
  0
POLYLINE
  8
VIRTUAL_SEGMENT_LOT
 66
     1
 62
    14
  6
CONTINUOUS
  0
VERTEX
  8
VIRTUAL_SEGMENT_LOT
 10
517083.00
 20
1142620.00
  0
VERTEX
  8
VIRTUAL_SEGMENT_LOT
 10
517083.00
 20
1142564.00
  0
SEQEND
  8
VIRTUAL_SEGMENT_LOT
  0
POLYLINE
  8
BDRY_TWP
 66
     1
 62
     4
  6
CONTINUOUS
  0
VERTEX
  8
BDRY_TWP
 10
513933.00
 20
1143787.00
  0
VERTEX
  8
BDRY_TWP
 10
513931.00
 20
1142771.00
  0
VERTEX
  8
BDRY_TWP
 10
513931.00
 20
1142361.00
  0
SEQEND
  8
BDRY_TWP
  0
POLYLINE
  8
VIRTUAL_SEGMENT_TOWNSHIP
 66
     1
 62
    14
  6
CONTINUOUS
  0
VERTEX
  8
VIRTUAL_SEGMENT_TOWNSHIP
 10
513931.00
 20
1142361.00
  0
VERTEX
  8
VIRTUAL_SEGMENT_TOWNSHIP
 10
513931.00
 20
1142336.00
  0
SEQEND
  8
VIRTUAL_SEGMENT_TOWNSHIP
  0
POLYLINE
  8
BDRY_TWP_LOT-SURVEYED
 66
     1
 62
     2
  6
DASHDOT2
  0
VERTEX
  8
BDRY_TWP_LOT-SURVEYED
 10
510710.00
 20
1142894.00
  0
VERTEX
  8
BDRY_TWP_LOT-SURVEYED
 10
510709.00
 20
1142841.00
  0
VERTEX
  8
BDRY_TWP_LOT-SURVEYED
 10
510695.00
 20
1142163.00
  0
VERTEX
  8
BDRY_TWP_LOT-SURVEYED
 10
510695.00
 20
1142160.00
  0
SEQEND
  8
BDRY_TWP_LOT-SURVEYED
  0
POLYLINE
  8
BDRY_TWP_LOT-SURVEYED
 66
     1
 62
     2
  6
DASHDOT2
  0
VERTEX
  8
BDRY_TWP_LOT-SURVEYED
 10
510540.00
 20
1142161.00
  0
VERTEX
  8
BDRY_TWP_LOT-SURVEYED
 10
510695.00
 20
1142160.00
  0
SEQEND
  8
BDRY_TWP_LOT-SURVEYED
  0
POLYLINE
  8
VIRTUAL_SEGMENT_LOT
 66
     1
 62
    14
  6
CONTINUOUS
  0
VERTEX
  8
VIRTUAL_SEGMENT_LOT
 10
510452.00
 20
1142159.00
  0
VERTEX
  8
VIRTUAL_SEGMENT_LOT
 10
510540.00
 20
1142161.00
  0
SEQEND
  8
VIRTUAL_SEGMENT_LOT
  0
POLYLINE
  8
BDRY_TWP_LOT_UNSURVEYED
 66
     1
 62
     2
  6
DIVIDE
  0
VERTEX
  8
BDRY_TWP_LOT_UNSURVEYED
 10
511516.00
 20
1143791.00
  0
VERTEX
  8
BDRY_TWP_LOT_UNSURVEYED
 10
511507.00
 20
1143277.00
  0
VERTEX
  8
BDRY_TWP_LOT_UNSURVEYED
 10
511515.00
 20
1142637.00
  0
VERTEX
  8
BDRY_TWP_LOT_UNSURVEYED
 10
511514.00
 20
1142446.00
  0
VERTEX
  8
BDRY_TWP_LOT_UNSURVEYED
 10
511515.00
 20
1142155.00
  0
SEQEND
  8
BDRY_TWP_LOT_UNSURVEYED
  0
POLYLINE
  8
BDRY_TWP_LOT-SURVEYED
 66
     1
 62
     2
  6
DASHDOT2
  0
VERTEX
  8
BDRY_TWP_LOT-SURVEYED
 10
510695.00
 20
1142160.00
  0
VERTEX
  8
BDRY_TWP_LOT-SURVEYED
 10
511515.00
 20
1142155.00
  0
SEQEND
  8
BDRY_TWP_LOT-SURVEYED
  0
POLYLINE
  8
BDRY_TWP_LOT-SURVEYED
 66
     1
 62
     2
  6
DASHDOT2
  0
VERTEX
  8
BDRY_TWP_LOT-SURVEYED
 10
511515.00
 20
1142155.00
  0
VERTEX
  8
BDRY_TWP_LOT-SURVEYED
 10
511534.00
 20
1142155.00
  0
SEQEND
  8
BDRY_TWP_LOT-SURVEYED
  0
POLYLINE
  8
BDRY_TWP_LOT-SURVEYED
 66
     1
 62
     2
  6
DASHDOT2
  0
VERTEX
  8
BDRY_TWP_LOT-SURVEYED
 10
511534.00
 20
1142155.00
  0
VERTEX
  8
BDRY_TWP_LOT-SURVEYED
 10
511538.00
 20
1142155.00
  0
VERTEX
  8
BDRY_TWP_LOT-SURVEYED
 10
511544.00
 20
1142155.00
  0
SEQEND
  8
BDRY_TWP_LOT-SURVEYED
  0
POLYLINE
  8
BDRY_TWP_LOT-SURVEYED
 66
     1
 62
     2
  6
DASHDOT2
  0
VERTEX
  8
BDRY_TWP_LOT-SURVEYED
 10
512349.00
 20
1142597.00
  0
VERTEX
  8
BDRY_TWP_LOT-SURVEYED
 10
512347.00
 20
1142152.00
  0
VERTEX
  8
BDRY_TWP_LOT-SURVEYED
 10
512347.00
 20
1142149.00
  0
SEQEND
  8
BDRY_TWP_LOT-SURVEYED
  0
POLYLINE
  8
BDRY_TWP_LOT-SURVEYED
 66
     1
 62
     2
  6
DASHDOT2
  0
VERTEX
  8
BDRY_TWP_LOT-SURVEYED
 10
511544.00
 20
1142155.00
  0
VERTEX
  8
BDRY_TWP_LOT-SURVEYED
 10
512347.00
 20
1142149.00
  0
SEQEND
  8
BDRY_TWP_LOT-SURVEYED
  0
POLYLINE
  8
BDRY_TWP_LOT_UNSURVEYED
 66
     1
 62
     2
  6
DIVIDE
  0
VERTEX
  8
BDRY_TWP_LOT_UNSURVEYED
 10
514730.00
 20
1143398.00
  0
VERTEX
  8
BDRY_TWP_LOT_UNSURVEYED
 10
514721.00
 20
1142385.00
  0
VERTEX
  8
BDRY_TWP_LOT_UNSURVEYED
 10
514721.00
 20
1142148.00
  0
SEQEND
  8
BDRY_TWP_LOT_UNSURVEYED
  0
POLYLINE
  8
VIRTUAL_SEGMENT_LOT
 66
     1
 62
    14
  6
CONTINUOUS
  0
VERTEX
  8
VIRTUAL_SEGMENT_LOT
 10
514213.00
 20
1142152.00
  0
VERTEX
  8
VIRTUAL_SEGMENT_LOT
 10
514721.00
 20
1142148.00
  0
SEQEND
  8
VIRTUAL_SEGMENT_LOT
  0
POLYLINE
  8
BDRY_TWP_LOT-SURVEYED
 66
     1
 62
     2
  6
DASHDOT2
  0
VERTEX
  8
BDRY_TWP_LOT-SURVEYED
 10
512347.00
 20
1142149.00
  0
VERTEX
  8
BDRY_TWP_LOT-SURVEYED
 10
512618.00
 20
1142147.00
  0
SEQEND
  8
BDRY_TWP_LOT-SURVEYED
  0
POLYLINE
  8
VIRTUAL_SEGMENT_LOT
 66
     1
 62
    14
  6
CONTINUOUS
  0
VERTEX
  8
VIRTUAL_SEGMENT_LOT
 10
512618.00
 20
1142147.00
  0
VERTEX
  8
VIRTUAL_SEGMENT_LOT
 10
512653.00
 20
1142147.00
  0
SEQEND
  8
VIRTUAL_SEGMENT_LOT
  0
POLYLINE
  8
BDRY_TWP_LOT_UNSURVEYED
 66
     1
 62
     2
  6
DIVIDE
  0
VERTEX
  8
BDRY_TWP_LOT_UNSURVEYED
 10
513196.00
 20
1142144.00
  0
VERTEX
  8
BDRY_TWP_LOT_UNSURVEYED
 10
513191.00
 20
1142871.00
  0
VERTEX
  8
BDRY_TWP_LOT_UNSURVEYED
 10
513197.00
 20
1143789.00
  0
SEQEND
  8
BDRY_TWP_LOT_UNSURVEYED
  0
POLYLINE
  8
BDRY_TWP_LOT-SURVEYED
 66
     1
 62
     2
  6
DASHDOT2
  0
VERTEX
  8
BDRY_TWP_LOT-SURVEYED
 10
512653.00
 20
1142147.00
  0
VERTEX
  8
BDRY_TWP_LOT-SURVEYED
 10
512680.00
 20
1142147.00
  0
VERTEX
  8
BDRY_TWP_LOT-SURVEYED
 10
513196.00
 20
1142144.00
  0
SEQEND
  8
BDRY_TWP_LOT-SURVEYED
  0
POLYLINE
  8
BDRY_TWP_LOT-SURVEYED
 66
     1
 62
     2
  6
DASHDOT2
  0
VERTEX
  8
BDRY_TWP_LOT-SURVEYED
 10
513196.00
 20
1142144.00
  0
VERTEX
  8
BDRY_TWP_LOT-SURVEYED
 10
513225.00
 20
1142144.00
  0
SEQEND
  8
BDRY_TWP_LOT-SURVEYED
  0
POLYLINE
  8
VIRTUAL_SEGMENT_LOT
 66
     1
 62
    14
  6
CONTINUOUS
  0
VERTEX
  8
VIRTUAL_SEGMENT_LOT
 10
514721.00
 20
1142148.00
  0
VERTEX
  8
VIRTUAL_SEGMENT_LOT
 10
515195.00
 20
1142144.00
  0
SEQEND
  8
VIRTUAL_SEGMENT_LOT
  0
POLYLINE
  8
BDRY_TWP_LOT-SURVEYED
 66
     1
 62
     2
  6
DASHDOT2
  0
VERTEX
  8
BDRY_TWP_LOT-SURVEYED
 10
515497.00
 20
1142628.00
  0
VERTEX
  8
BDRY_TWP_LOT-SURVEYED
 10
515497.00
 20
1142142.00
  0
SEQEND
  8
BDRY_TWP_LOT-SURVEYED
  0
POLYLINE
  8
BDRY_TWP_LOT-SURVEYED
 66
     1
 62
     2
  6
DASHDOT2
  0
VERTEX
  8
BDRY_TWP_LOT-SURVEYED
 10
515195.00
 20
1142144.00
  0
VERTEX
  8
BDRY_TWP_LOT-SURVEYED
 10
515497.00
 20
1142142.00
  0
SEQEND
  8
BDRY_TWP_LOT-SURVEYED
  0
POLYLINE
  8
BDRY_TWP_LOT-SURVEYED
 66
     1
 62
     2
  6
DASHDOT2
  0
VERTEX
  8
BDRY_TWP_LOT-SURVEYED
 10
513931.00
 20
1142141.00
  0
VERTEX
  8
BDRY_TWP_LOT-SURVEYED
 10
514213.00
 20
1142152.00
  0
SEQEND
  8
BDRY_TWP_LOT-SURVEYED
  0
POLYLINE
  8
BDRY_TWP
 66
     1
 62
     4
  6
CONTINUOUS
  0
VERTEX
  8
BDRY_TWP
 10
513931.00
 20
1142336.00
  0
VERTEX
  8
BDRY_TWP
 10
513931.00
 20
1142141.00
  0
SEQEND
  8
BDRY_TWP
  0
POLYLINE
  8
BDRY_TWP_LOT-SURVEYED
 66
     1
 62
     2
  6
DASHDOT2
  0
VERTEX
  8
BDRY_TWP_LOT-SURVEYED
 10
513225.00
 20
1142144.00
  0
VERTEX
  8
BDRY_TWP_LOT-SURVEYED
 10
513931.00
 20
1142141.00
  0
SEQEND
  8
BDRY_TWP_LOT-SURVEYED
  0
POLYLINE
  8
BDRY_TWP_LOT_UNSURVEYED
 66
     1
 62
     2
  6
DIVIDE
  0
VERTEX
  8
BDRY_TWP_LOT_UNSURVEYED
 10
519456.00
 20
1143745.00
  0
VERTEX
  8
BDRY_TWP_LOT_UNSURVEYED
 10
519467.00
 20
1142804.00
  0
VERTEX
  8
BDRY_TWP_LOT_UNSURVEYED
 10
519483.00
 20
1142141.00
  0
SEQEND
  8
BDRY_TWP_LOT_UNSURVEYED
  0
POLYLINE
  8
BDRY_TWP_LOT_UNSURVEYED
 66
     1
 62
     2
  6
DIVIDE
  0
VERTEX
  8
BDRY_TWP_LOT_UNSURVEYED
 10
516255.00
 20
1143777.00
  0
VERTEX
  8
BDRY_TWP_LOT_UNSURVEYED
 10
516281.00
 20
1142568.00
  0
VERTEX
  8
BDRY_TWP_LOT_UNSURVEYED
 10
516288.00
 20
1142139.00
  0
SEQEND
  8
BDRY_TWP_LOT_UNSURVEYED
  0
POLYLINE
  8
BDRY_TWP_LOT-SURVEYED
 66
     1
 62
     2
  6
DASHDOT2
  0
VERTEX
  8
BDRY_TWP_LOT-SURVEYED
 10
515497.00
 20
1142142.00
  0
VERTEX
  8
BDRY_TWP_LOT-SURVEYED
 10
516288.00
 20
1142139.00
  0
SEQEND
  8
BDRY_TWP_LOT-SURVEYED
  0
POLYLINE
  8
BDRY_TWP_LOT-SURVEYED
 66
     1
 62
     2
  6
DASHDOT2
  0
VERTEX
  8
BDRY_TWP_LOT-SURVEYED
 10
518666.00
 20
1142926.00
  0
VERTEX
  8
BDRY_TWP_LOT-SURVEYED
 10
518682.00
 20
1142139.00
  0
SEQEND
  8
BDRY_TWP_LOT-SURVEYED
  0
POLYLINE
  8
BDRY_TWP_LOT-SURVEYED
 66
     1
 62
     2
  6
DASHDOT2
  0
VERTEX
  8
BDRY_TWP_LOT-SURVEYED
 10
518682.00
 20
1142139.00
  0
VERTEX
  8
BDRY_TWP_LOT-SURVEYED
 10
519199.00
 20
1142139.00
  0
VERTEX
  8
BDRY_TWP_LOT-SURVEYED
 10
519483.00
 20
1142141.00
  0
SEQEND
  8
BDRY_TWP_LOT-SURVEYED
  0
POLYLINE
  8
BDRY_TWP_LOT-SURVEYED
 66
     1
 62
     2
  6
DASHDOT2
  0
VERTEX
  8
BDRY_TWP_LOT-SURVEYED
 10
517083.00
 20
1142564.00
  0
VERTEX
  8
BDRY_TWP_LOT-SURVEYED
 10
517092.00
 20
1142144.00
  0
VERTEX
  8
BDRY_TWP_LOT-SURVEYED
 10
517092.00
 20
1142138.00
  0
SEQEND
  8
BDRY_TWP_LOT-SURVEYED
  0
POLYLINE
  8
BDRY_TWP_LOT-SURVEYED
 66
     1
 62
     2
  6
DASHDOT2
  0
VERTEX
  8
BDRY_TWP_LOT-SURVEYED
 10
516288.00
 20
1142139.00
  0
VERTEX
  8
BDRY_TWP_LOT-SURVEYED
 10
516560.00
 20
1142138.00
  0
VERTEX
  8
BDRY_TWP_LOT-SURVEYED
 10
517092.00
 20
1142138.00
  0
SEQEND
  8
BDRY_TWP_LOT-SURVEYED
  0
POLYLINE
  8
BDRY_TWP_LOT_UNSURVEYED
 66
     1
 62
     2
  6
DIVIDE
  0
VERTEX
  8
BDRY_TWP_LOT_UNSURVEYED
 10
517878.00
 20
1142677.00
  0
VERTEX
  8
BDRY_TWP_LOT_UNSURVEYED
 10
517888.00
 20
1142138.00
  0
SEQEND
  8
BDRY_TWP_LOT_UNSURVEYED
  0
POLYLINE
  8
BDRY_TWP_LOT-SURVEYED
 66
     1
 62
     2
  6
DASHDOT2
  0
VERTEX
  8
BDRY_TWP_LOT-SURVEYED
 10
517092.00
 20
1142138.00
  0
VERTEX
  8
BDRY_TWP_LOT-SURVEYED
 10
517888.00
 20
1142138.00
  0
SEQEND
  8
BDRY_TWP_LOT-SURVEYED
  0
POLYLINE
  8
BDRY_TWP_LOT-SURVEYED
 66
     1
 62
     2
  6
DASHDOT2
  0
VERTEX
  8
BDRY_TWP_LOT-SURVEYED
 10
517888.00
 20
1142138.00
  0
VERTEX
  8
BDRY_TWP_LOT-SURVEYED
 10
518118.00
 20
1142138.00
  0
VERTEX
  8
BDRY_TWP_LOT-SURVEYED
 10
518682.00
 20
1142139.00
  0
SEQEND
  8
BDRY_TWP_LOT-SURVEYED
  0
POLYLINE
  8
BDRY_TWP_LOT-SURVEYED
 66
     1
 62
     2
  6
DASHDOT2
  0
VERTEX
  8
BDRY_TWP_LOT-SURVEYED
 10
517092.00
 20
1142138.00
  0
VERTEX
  8
BDRY_TWP_LOT-SURVEYED
 10
517093.00
 20
1142040.00
  0
SEQEND
  8
BDRY_TWP_LOT-SURVEYED
  0
POLYLINE
  8
VIRTUAL_SEGMENT_LOT
 66
     1
 62
    14
  6
CONTINUOUS
  0
VERTEX
  8
VIRTUAL_SEGMENT_LOT
 10
517093.00
 20
1142040.00
  0
VERTEX
  8
VIRTUAL_SEGMENT_LOT
 10
517097.00
 20
1141991.00
  0
SEQEND
  8
VIRTUAL_SEGMENT_LOT
  0
POLYLINE
  8
BDRY_TWP_LOT_UNSURVEYED
 66
     1
 62
     2
  6
DIVIDE
  0
VERTEX
  8
BDRY_TWP_LOT_UNSURVEYED
 10
516288.00
 20
1142139.00
  0
VERTEX
  8
BDRY_TWP_LOT_UNSURVEYED
 10
516293.00
 20
1141858.00
  0
SEQEND
  8
BDRY_TWP_LOT_UNSURVEYED
  0
POLYLINE
  8
VIRTUAL_SEGMENT_LOT
 66
     1
 62
    14
  6
CONTINUOUS
  0
VERTEX
  8
VIRTUAL_SEGMENT_LOT
 10
516293.00
 20
1141858.00
  0
VERTEX
  8
VIRTUAL_SEGMENT_LOT
 10
516293.00
 20
1141845.00
  0
SEQEND
  8
VIRTUAL_SEGMENT_LOT
  0
POLYLINE
  8
BDRY_TWP_LOT-SURVEYED
 66
     1
 62
     2
  6
DASHDOT2
  0
VERTEX
  8
BDRY_TWP_LOT-SURVEYED
 10
515497.00
 20
1142142.00
  0
VERTEX
  8
BDRY_TWP_LOT-SURVEYED
 10
515497.00
 20
1141814.00
  0
SEQEND
  8
BDRY_TWP_LOT-SURVEYED
  0
POLYLINE
  8
VIRTUAL_SEGMENT_LOT
 66
     1
 62
    14
  6
CONTINUOUS
  0
VERTEX
  8
VIRTUAL_SEGMENT_LOT
 10
515497.00
 20
1141814.00
  0
VERTEX
  8
VIRTUAL_SEGMENT_LOT
 10
515497.00
 20
1141769.00
  0
SEQEND
  8
VIRTUAL_SEGMENT_LOT
  0
POLYLINE
  8
BDRY_TWP_LOT_UNSURVEYED
 66
     1
 62
     2
  6
DIVIDE
  0
VERTEX
  8
BDRY_TWP_LOT_UNSURVEYED
 10
519483.00
 20
1142141.00
  0
VERTEX
  8
BDRY_TWP_LOT_UNSURVEYED
 10
519483.00
 20
1142134.00
  0
VERTEX
  8
BDRY_TWP_LOT_UNSURVEYED
 10
519481.00
 20
1141538.00
  0
SEQEND
  8
BDRY_TWP_LOT_UNSURVEYED
  0
POLYLINE
  8
BDRY_TWP_LOT-SURVEYED
 66
     1
 62
     2
  6
DASHDOT2
  0
VERTEX
  8
BDRY_TWP_LOT-SURVEYED
 10
517097.00
 20
1141991.00
  0
VERTEX
  8
BDRY_TWP_LOT-SURVEYED
 10
517096.00
 20
1141530.00
  0
SEQEND
  8
BDRY_TWP_LOT-SURVEYED
  0
POLYLINE
  8
VIRTUAL_SEGMENT_LOT
 66
     1
 62
    14
  6
CONTINUOUS
  0
VERTEX
  8
VIRTUAL_SEGMENT_LOT
 10
519481.00
 20
1141538.00
  0
VERTEX
  8
VIRTUAL_SEGMENT_LOT
 10
519484.00
 20
1141481.00
  0
SEQEND
  8
VIRTUAL_SEGMENT_LOT
  0
POLYLINE
  8
VIRTUAL_SEGMENT_LOT
 66
     1
 62
    14
  6
CONTINUOUS
  0
VERTEX
  8
VIRTUAL_SEGMENT_LOT
 10
517096.00
 20
1141530.00
  0
VERTEX
  8
VIRTUAL_SEGMENT_LOT
 10
517094.00
 20
1141381.00
  0
SEQEND
  8
VIRTUAL_SEGMENT_LOT
  0
POLYLINE
  8
BDRY_TWP_LOT-SURVEYED
 66
     1
 62
     2
  6
DASHDOT2
  0
VERTEX
  8
BDRY_TWP_LOT-SURVEYED
 10
518682.00
 20
1142139.00
  0
VERTEX
  8
BDRY_TWP_LOT-SURVEYED
 10
518682.00
 20
1142137.00
  0
VERTEX
  8
BDRY_TWP_LOT-SURVEYED
 10
518674.00
 20
1141331.00
  0
SEQEND
  8
BDRY_TWP_LOT-SURVEYED
  0
POLYLINE
  8
BDRY_TWP_LOT_UNSURVEYED
 66
     1
 62
     2
  6
DIVIDE
  0
VERTEX
  8
BDRY_TWP_LOT_UNSURVEYED
 10
516293.00
 20
1141845.00
  0
VERTEX
  8
BDRY_TWP_LOT_UNSURVEYED
 10
516303.00
 20
1141282.00
  0
SEQEND
  8
BDRY_TWP_LOT_UNSURVEYED
  0
POLYLINE
  8
BDRY_TWP_LOT-SURVEYED
 66
     1
 62
     2
  6
DASHDOT2
  0
VERTEX
  8
BDRY_TWP_LOT-SURVEYED
 10
517094.00
 20
1141381.00
  0
VERTEX
  8
BDRY_TWP_LOT-SURVEYED
 10
517096.00
 20
1141275.00
  0
SEQEND
  8
BDRY_TWP_LOT-SURVEYED
  0
POLYLINE
  8
VIRTUAL_SEGMENT_LOT
 66
     1
 62
    14
  6
CONTINUOUS
  0
VERTEX
  8
VIRTUAL_SEGMENT_LOT
 10
516303.00
 20
1141282.00
  0
VERTEX
  8
VIRTUAL_SEGMENT_LOT
 10
516305.00
 20
1141253.00
  0
SEQEND
  8
VIRTUAL_SEGMENT_LOT
  0
POLYLINE
  8
BDRY_TWP_LOT_UNSURVEYED
 66
     1
 62
     2
  6
DIVIDE
  0
VERTEX
  8
BDRY_TWP_LOT_UNSURVEYED
 10
517888.00
 20
1142138.00
  0
VERTEX
  8
BDRY_TWP_LOT_UNSURVEYED
 10
517888.00
 20
1142134.00
  0
VERTEX
  8
BDRY_TWP_LOT_UNSURVEYED
 10
517891.00
 20
1141078.00
  0
SEQEND
  8
BDRY_TWP_LOT_UNSURVEYED
  0
POLYLINE
  8
BDRY_TWP_LOT_UNSURVEYED
 66
     1
 62
     2
  6
DIVIDE
  0
VERTEX
  8
BDRY_TWP_LOT_UNSURVEYED
 10
519484.00
 20
1141481.00
  0
VERTEX
  8
BDRY_TWP_LOT_UNSURVEYED
 10
519482.00
 20
1141054.00
  0
SEQEND
  8
BDRY_TWP_LOT_UNSURVEYED
  0
POLYLINE
  8
VIRTUAL_SEGMENT_LOT
 66
     1
 62
    14
  6
CONTINUOUS
  0
VERTEX
  8
VIRTUAL_SEGMENT_LOT
 10
517096.00
 20
1141275.00
  0
VERTEX
  8
VIRTUAL_SEGMENT_LOT
 10
517096.00
 20
1141042.00
  0
SEQEND
  8
VIRTUAL_SEGMENT_LOT
  0
POLYLINE
  8
VIRTUAL_SEGMENT_LOT
 66
     1
 62
    14
  6
CONTINUOUS
  0
VERTEX
  8
VIRTUAL_SEGMENT_LOT
 10
519482.00
 20
1141054.00
  0
VERTEX
  8
VIRTUAL_SEGMENT_LOT
 10
519482.00
 20
1141038.00
  0
SEQEND
  8
VIRTUAL_SEGMENT_LOT
  0
POLYLINE
  8
VIRTUAL_SEGMENT_LOT
 66
     1
 62
    14
  6
CONTINUOUS
  0
VERTEX
  8
VIRTUAL_SEGMENT_LOT
 10
517891.00
 20
1141078.00
  0
VERTEX
  8
VIRTUAL_SEGMENT_LOT
 10
517893.00
 20
1140899.00
  0
SEQEND
  8
VIRTUAL_SEGMENT_LOT
  0
POLYLINE
  8
BDRY_TWP_LOT-SURVEYED
 66
     1
 62
     2
  6
DASHDOT2
  0
VERTEX
  8
BDRY_TWP_LOT-SURVEYED
 10
512347.00
 20
1142149.00
  0
VERTEX
  8
BDRY_TWP_LOT-SURVEYED
 10
512371.00
 20
1141267.00
  0
VERTEX
  8
BDRY_TWP_LOT-SURVEYED
 10
512380.00
 20
1140796.00
  0
SEQEND
  8
BDRY_TWP_LOT-SURVEYED
  0
POLYLINE
  8
VIRTUAL_SEGMENT_LOT
 66
     1
 62
    14
  6
CONTINUOUS
  0
VERTEX
  8
VIRTUAL_SEGMENT_LOT
 10
518674.00
 20
1141331.00
  0
VERTEX
  8
VIRTUAL_SEGMENT_LOT
 10
518676.00
 20
1140773.00
  0
SEQEND
  8
VIRTUAL_SEGMENT_LOT
  0
POLYLINE
  8
VIRTUAL_SEGMENT_LOT
 66
     1
 62
    14
  6
CONTINUOUS
  0
VERTEX
  8
VIRTUAL_SEGMENT_LOT
 10
512380.00
 20
1140796.00
  0
VERTEX
  8
VIRTUAL_SEGMENT_LOT
 10
512382.00
 20
1140767.00
  0
SEQEND
  8
VIRTUAL_SEGMENT_LOT
  0
POLYLINE
  8
BDRY_TWP
 66
     1
 62
     4
  6
CONTINUOUS
  0
VERTEX
  8
BDRY_TWP
 10
513931.00
 20
1142141.00
  0
VERTEX
  8
BDRY_TWP
 10
513931.00
 20
1141952.00
  0
VERTEX
  8
BDRY_TWP
 10
513935.00
 20
1141113.00
  0
VERTEX
  8
BDRY_TWP
 10
513934.00
 20
1140692.00
  0
SEQEND
  8
BDRY_TWP
  0
POLYLINE
  8
VIRTUAL_SEGMENT_TOWNSHIP
 66
     1
 62
    14
  6
CONTINUOUS
  0
VERTEX
  8
VIRTUAL_SEGMENT_TOWNSHIP
 10
513934.00
 20
1140692.00
  0
VERTEX
  8
VIRTUAL_SEGMENT_TOWNSHIP
 10
513934.00
 20
1140609.00
  0
SEQEND
  8
VIRTUAL_SEGMENT_TOWNSHIP
  0
POLYLINE
  8
VIRTUAL_SEGMENT_LOT
 66
     1
 62
    14
  6
CONTINUOUS
  0
VERTEX
  8
VIRTUAL_SEGMENT_LOT
 10
510181.00
 20
1140557.00
  0
VERTEX
  8
VIRTUAL_SEGMENT_LOT
 10
510198.00
 20
1140557.00
  0
SEQEND
  8
VIRTUAL_SEGMENT_LOT
  0
POLYLINE
  8
BDRY_TWP_LOT-SURVEYED
 66
     1
 62
     2
  6
DASHDOT2
  0
VERTEX
  8
BDRY_TWP_LOT-SURVEYED
 10
510695.00
 20
1142160.00
  0
VERTEX
  8
BDRY_TWP_LOT-SURVEYED
 10
510729.00
 20
1140571.00
  0
VERTEX
  8
BDRY_TWP_LOT-SURVEYED
 10
510729.00
 20
1140553.00
  0
SEQEND
  8
BDRY_TWP_LOT-SURVEYED
  0
POLYLINE
  8
BDRY_TWP_LOT-SURVEYED
 66
     1
 62
     2
  6
DASHDOT2
  0
VERTEX
  8
BDRY_TWP_LOT-SURVEYED
 10
510198.00
 20
1140557.00
  0
VERTEX
  8
BDRY_TWP_LOT-SURVEYED
 10
510729.00
 20
1140553.00
  0
SEQEND
  8
BDRY_TWP_LOT-SURVEYED
  0
POLYLINE
  8
BDRY_TWP_LOT_UNSURVEYED
 66
     1
 62
     2
  6
DIVIDE
  0
VERTEX
  8
BDRY_TWP_LOT_UNSURVEYED
 10
511534.00
 20
1142155.00
  0
VERTEX
  8
BDRY_TWP_LOT_UNSURVEYED
 10
511546.00
 20
1141408.00
  0
VERTEX
  8
BDRY_TWP_LOT_UNSURVEYED
 10
511559.00
 20
1140671.00
  0
VERTEX
  8
BDRY_TWP_LOT_UNSURVEYED
 10
511561.00
 20
1140547.00
  0
SEQEND
  8
BDRY_TWP_LOT_UNSURVEYED
  0
POLYLINE
  8
BDRY_TWP_LOT-SURVEYED
 66
     1
 62
     2
  6
DASHDOT2
  0
VERTEX
  8
BDRY_TWP_LOT-SURVEYED
 10
510729.00
 20
1140553.00
  0
VERTEX
  8
BDRY_TWP_LOT-SURVEYED
 10
511561.00
 20
1140547.00
  0
SEQEND
  8
BDRY_TWP_LOT-SURVEYED
  0
POLYLINE
  8
BDRY_TWP_LOT-SURVEYED
 66
     1
 62
     2
  6
DASHDOT2
  0
VERTEX
  8
BDRY_TWP_LOT-SURVEYED
 10
518676.00
 20
1140546.00
  0
VERTEX
  8
BDRY_TWP_LOT-SURVEYED
 10
518834.00
 20
1140547.00
  0
SEQEND
  8
BDRY_TWP_LOT-SURVEYED
  0
POLYLINE
  8
BDRY_TWP_LOT-SURVEYED
 66
     1
 62
     2
  6
DASHDOT2
  0
VERTEX
  8
BDRY_TWP_LOT-SURVEYED
 10
518676.00
 20
1140773.00
  0
VERTEX
  8
BDRY_TWP_LOT-SURVEYED
 10
518676.00
 20
1140546.00
  0
SEQEND
  8
BDRY_TWP_LOT-SURVEYED
  0
POLYLINE
  8
BDRY_TWP_LOT-SURVEYED
 66
     1
 62
     2
  6
DASHDOT2
  0
VERTEX
  8
BDRY_TWP_LOT-SURVEYED
 10
517891.00
 20
1140544.00
  0
VERTEX
  8
BDRY_TWP_LOT-SURVEYED
 10
518676.00
 20
1140546.00
  0
SEQEND
  8
BDRY_TWP_LOT-SURVEYED
  0
POLYLINE
  8
BDRY_TWP_LOT_UNSURVEYED
 66
     1
 62
     2
  6
DIVIDE
  0
VERTEX
  8
BDRY_TWP_LOT_UNSURVEYED
 10
517893.00
 20
1140899.00
  0
VERTEX
  8
BDRY_TWP_LOT_UNSURVEYED
 10
517891.00
 20
1140544.00
  0
SEQEND
  8
BDRY_TWP_LOT_UNSURVEYED
  0
POLYLINE
  8
BDRY_TWP_LOT-SURVEYED
 66
     1
 62
     2
  6
DASHDOT2
  0
VERTEX
  8
BDRY_TWP_LOT-SURVEYED
 10
512382.00
 20
1140767.00
  0
VERTEX
  8
BDRY_TWP_LOT-SURVEYED
 10
512387.00
 20
1140543.00
  0
SEQEND
  8
BDRY_TWP_LOT-SURVEYED
  0
POLYLINE
  8
BDRY_TWP_LOT-SURVEYED
 66
     1
 62
     2
  6
DASHDOT2
  0
VERTEX
  8
BDRY_TWP_LOT-SURVEYED
 10
511561.00
 20
1140547.00
  0
VERTEX
  8
BDRY_TWP_LOT-SURVEYED
 10
512079.00
 20
1140543.00
  0
VERTEX
  8
BDRY_TWP_LOT-SURVEYED
 10
512387.00
 20
1140543.00
  0
SEQEND
  8
BDRY_TWP_LOT-SURVEYED
  0
POLYLINE
  8
BDRY_TWP_LOT-SURVEYED
 66
     1
 62
     2
  6
DASHDOT2
  0
VERTEX
  8
BDRY_TWP_LOT-SURVEYED
 10
512387.00
 20
1140543.00
  0
VERTEX
  8
BDRY_TWP_LOT-SURVEYED
 10
513143.00
 20
1140541.00
  0
SEQEND
  8
BDRY_TWP_LOT-SURVEYED
  0
POLYLINE
  8
VIRTUAL_SEGMENT_LOT
 66
     1
 62
    14
  6
CONTINUOUS
  0
VERTEX
  8
VIRTUAL_SEGMENT_LOT
 10
513143.00
 20
1140541.00
  0
VERTEX
  8
VIRTUAL_SEGMENT_LOT
 10
513183.00
 20
1140541.00
  0
SEQEND
  8
VIRTUAL_SEGMENT_LOT
  0
POLYLINE
  8
BDRY_TWP_LOT_UNSURVEYED
 66
     1
 62
     2
  6
DIVIDE
  0
VERTEX
  8
BDRY_TWP_LOT_UNSURVEYED
 10
513220.00
 20
1140541.00
  0
VERTEX
  8
BDRY_TWP_LOT_UNSURVEYED
 10
513219.00
 20
1141109.00
  0
VERTEX
  8
BDRY_TWP_LOT_UNSURVEYED
 10
513225.00
 20
1142144.00
  0
SEQEND
  8
BDRY_TWP_LOT_UNSURVEYED
  0
POLYLINE
  8
BDRY_TWP_LOT-SURVEYED
 66
     1
 62
     2
  6
DASHDOT2
  0
VERTEX
  8
BDRY_TWP_LOT-SURVEYED
 10
513183.00
 20
1140541.00
  0
VERTEX
  8
BDRY_TWP_LOT-SURVEYED
 10
513220.00
 20
1140541.00
  0
SEQEND
  8
BDRY_TWP_LOT-SURVEYED
  0
POLYLINE
  8
BDRY_TWP_LOT-SURVEYED
 66
     1
 62
     2
  6
DASHDOT2
  0
VERTEX
  8
BDRY_TWP_LOT-SURVEYED
 10
517091.00
 20
1140541.00
  0
VERTEX
  8
BDRY_TWP_LOT-SURVEYED
 10
517270.00
 20
1140542.00
  0
VERTEX
  8
BDRY_TWP_LOT-SURVEYED
 10
517891.00
 20
1140544.00
  0
SEQEND
  8
BDRY_TWP_LOT-SURVEYED
  0
POLYLINE
  8
BDRY_TWP_LOT-SURVEYED
 66
     1
 62
     2
  6
DASHDOT2
  0
VERTEX
  8
BDRY_TWP_LOT-SURVEYED
 10
517096.00
 20
1141042.00
  0
VERTEX
  8
BDRY_TWP_LOT-SURVEYED
 10
517091.00
 20
1140548.00
  0
VERTEX
  8
BDRY_TWP_LOT-SURVEYED
 10
517091.00
 20
1140541.00
  0
SEQEND
  8
BDRY_TWP_LOT-SURVEYED
  0
POLYLINE
  8
BDRY_TWP_LOT-SURVEYED
 66
     1
 62
     2
  6
DASHDOT2
  0
VERTEX
  8
BDRY_TWP_LOT-SURVEYED
 10
513220.00
 20
1140541.00
  0
VERTEX
  8
BDRY_TWP_LOT-SURVEYED
 10
513715.00
 20
1140540.00
  0
VERTEX
  8
BDRY_TWP_LOT-SURVEYED
 10
513843.00
 20
1140539.00
  0
SEQEND
  8
BDRY_TWP_LOT-SURVEYED
  0
POLYLINE
  8
VIRTUAL_SEGMENT_LOT
 66
     1
 62
    14
  6
CONTINUOUS
  0
VERTEX
  8
VIRTUAL_SEGMENT_LOT
 10
513843.00
 20
1140539.00
  0
VERTEX
  8
VIRTUAL_SEGMENT_LOT
 10
513893.00
 20
1140539.00
  0
SEQEND
  8
VIRTUAL_SEGMENT_LOT
  0
POLYLINE
  8
BDRY_TWP
 66
     1
 62
     4
  6
CONTINUOUS
  0
VERTEX
  8
BDRY_TWP
 10
513934.00
 20
1140609.00
  0
VERTEX
  8
BDRY_TWP
 10
513934.00
 20
1140539.00
  0
SEQEND
  8
BDRY_TWP
  0
POLYLINE
  8
BDRY_TWP_LOT-SURVEYED
 66
     1
 62
     2
  6
DASHDOT2
  0
VERTEX
  8
BDRY_TWP_LOT-SURVEYED
 10
513893.00
 20
1140539.00
  0
VERTEX
  8
BDRY_TWP_LOT-SURVEYED
 10
513934.00
 20
1140539.00
  0
SEQEND
  8
BDRY_TWP_LOT-SURVEYED
  0
POLYLINE
  8
BDRY_TWP_LOT-SURVEYED
 66
     1
 62
     2
  6
DASHDOT2
  0
VERTEX
  8
BDRY_TWP_LOT-SURVEYED
 10
516578.00
 20
1140537.00
  0
VERTEX
  8
BDRY_TWP_LOT-SURVEYED
 10
517091.00
 20
1140541.00
  0
SEQEND
  8
BDRY_TWP_LOT-SURVEYED
  0
POLYLINE
  8
VIRTUAL_SEGMENT_LOT
 66
     1
 62
    14
  6
CONTINUOUS
  0
VERTEX
  8
VIRTUAL_SEGMENT_LOT
 10
516498.00
 20
1140536.00
  0
VERTEX
  8
VIRTUAL_SEGMENT_LOT
 10
516578.00
 20
1140537.00
  0
SEQEND
  8
VIRTUAL_SEGMENT_LOT
  0
POLYLINE
  8
BDRY_TWP_LOT-SURVEYED
 66
     1
 62
     2
  6
DASHDOT2
  0
VERTEX
  8
BDRY_TWP_LOT-SURVEYED
 10
516308.00
 20
1140535.00
  0
VERTEX
  8
BDRY_TWP_LOT-SURVEYED
 10
516498.00
 20
1140536.00
  0
SEQEND
  8
BDRY_TWP_LOT-SURVEYED
  0
POLYLINE
  8
BDRY_TWP_LOT_UNSURVEYED
 66
     1
 62
     2
  6
DIVIDE
  0
VERTEX
  8
BDRY_TWP_LOT_UNSURVEYED
 10
516305.00
 20
1141253.00
  0
VERTEX
  8
BDRY_TWP_LOT_UNSURVEYED
 10
516307.00
 20
1140664.00
  0
VERTEX
  8
BDRY_TWP_LOT_UNSURVEYED
 10
516308.00
 20
1140535.00
  0
SEQEND
  8
BDRY_TWP_LOT_UNSURVEYED
  0
POLYLINE
  8
BDRY_TWP_LOT_UNSURVEYED
 66
     1
 62
     2
  6
DIVIDE
  0
VERTEX
  8
BDRY_TWP_LOT_UNSURVEYED
 10
514721.00
 20
1142148.00
  0
VERTEX
  8
BDRY_TWP_LOT_UNSURVEYED
 10
514719.00
 20
1141449.00
  0
VERTEX
  8
BDRY_TWP_LOT_UNSURVEYED
 10
514720.00
 20
1140591.00
  0
VERTEX
  8
BDRY_TWP_LOT_UNSURVEYED
 10
514720.00
 20
1140533.00
  0
SEQEND
  8
BDRY_TWP_LOT_UNSURVEYED
  0
POLYLINE
  8
BDRY_TWP_LOT-SURVEYED
 66
     1
 62
     2
  6
DASHDOT2
  0
VERTEX
  8
BDRY_TWP_LOT-SURVEYED
 10
513934.00
 20
1140539.00
  0
VERTEX
  8
BDRY_TWP_LOT-SURVEYED
 10
514720.00
 20
1140533.00
  0
SEQEND
  8
BDRY_TWP_LOT-SURVEYED
  0
POLYLINE
  8
BDRY_TWP_LOT-SURVEYED
 66
     1
 62
     2
  6
DASHDOT2
  0
VERTEX
  8
BDRY_TWP_LOT-SURVEYED
 10
516122.00
 20
1140533.00
  0
VERTEX
  8
BDRY_TWP_LOT-SURVEYED
 10
516308.00
 20
1140535.00
  0
SEQEND
  8
BDRY_TWP_LOT-SURVEYED
  0
POLYLINE
  8
VIRTUAL_SEGMENT_LOT
 66
     1
 62
    14
  6
CONTINUOUS
  0
VERTEX
  8
VIRTUAL_SEGMENT_LOT
 10
516114.00
 20
1140533.00
  0
VERTEX
  8
VIRTUAL_SEGMENT_LOT
 10
516122.00
 20
1140533.00
  0
SEQEND
  8
VIRTUAL_SEGMENT_LOT
  0
POLYLINE
  8
BDRY_TWP_LOT-SURVEYED
 66
     1
 62
     2
  6
DASHDOT2
  0
VERTEX
  8
BDRY_TWP_LOT-SURVEYED
 10
515517.00
 20
1140528.00
  0
VERTEX
  8
BDRY_TWP_LOT-SURVEYED
 10
516114.00
 20
1140533.00
  0
SEQEND
  8
BDRY_TWP_LOT-SURVEYED
  0
POLYLINE
  8
BDRY_TWP_LOT-SURVEYED
 66
     1
 62
     2
  6
DASHDOT2
  0
VERTEX
  8
BDRY_TWP_LOT-SURVEYED
 10
515497.00
 20
1141769.00
  0
VERTEX
  8
BDRY_TWP_LOT-SURVEYED
 10
515511.00
 20
1141114.00
  0
VERTEX
  8
BDRY_TWP_LOT-SURVEYED
 10
515517.00
 20
1140528.00
  0
SEQEND
  8
BDRY_TWP_LOT-SURVEYED
  0
POLYLINE
  8
BDRY_TWP_LOT-SURVEYED
 66
     1
 62
     2
  6
DASHDOT2
  0
VERTEX
  8
BDRY_TWP_LOT-SURVEYED
 10
514720.00
 20
1140533.00
  0
VERTEX
  8
BDRY_TWP_LOT-SURVEYED
 10
515431.00
 20
1140528.00
  0
VERTEX
  8
BDRY_TWP_LOT-SURVEYED
 10
515517.00
 20
1140528.00
  0
SEQEND
  8
BDRY_TWP_LOT-SURVEYED
  0
POLYLINE
  8
BDRY_TWP_LOT_UNSURVEYED
 66
     1
 62
     2
  6
DIVIDE
  0
VERTEX
  8
BDRY_TWP_LOT_UNSURVEYED
 10
516308.00
 20
1140535.00
  0
VERTEX
  8
BDRY_TWP_LOT_UNSURVEYED
 10
516308.00
 20
1140453.00
  0
SEQEND
  8
BDRY_TWP_LOT_UNSURVEYED
  0
POLYLINE
  8
VIRTUAL_SEGMENT_LOT
 66
     1
 62
    14
  6
CONTINUOUS
  0
VERTEX
  8
VIRTUAL_SEGMENT_LOT
 10
516308.00
 20
1140453.00
  0
VERTEX
  8
VIRTUAL_SEGMENT_LOT
 10
516308.00
 20
1140436.00
  0
SEQEND
  8
VIRTUAL_SEGMENT_LOT
  0
POLYLINE
  8
BDRY_TWP
 66
     1
 62
     4
  6
CONTINUOUS
  0
VERTEX
  8
BDRY_TWP
 10
513934.00
 20
1140539.00
  0
VERTEX
  8
BDRY_TWP
 10
513933.00
 20
1140413.00
  0
VERTEX
  8
BDRY_TWP
 10
513933.00
 20
1140383.00
  0
SEQEND
  8
BDRY_TWP
  0
POLYLINE
  8
VIRTUAL_SEGMENT_TOWNSHIP
 66
     1
 62
    14
  6
CONTINUOUS
  0
VERTEX
  8
VIRTUAL_SEGMENT_TOWNSHIP
 10
513933.00
 20
1140383.00
  0
VERTEX
  8
VIRTUAL_SEGMENT_TOWNSHIP
 10
513933.00
 20
1140326.00
  0
SEQEND
  8
VIRTUAL_SEGMENT_TOWNSHIP
  0
POLYLINE
  8
BDRY_TWP_LOT_UNSURVEYED
 66
     1
 62
     2
  6
DIVIDE
  0
VERTEX
  8
BDRY_TWP_LOT_UNSURVEYED
 10
513221.00
 20
1140295.00
  0
VERTEX
  8
BDRY_TWP_LOT_UNSURVEYED
 10
513220.00
 20
1140541.00
  0
SEQEND
  8
BDRY_TWP_LOT_UNSURVEYED
  0
POLYLINE
  8
VIRTUAL_SEGMENT_LOT
 66
     1
 62
    14
  6
CONTINUOUS
  0
VERTEX
  8
VIRTUAL_SEGMENT_LOT
 10
513221.00
 20
1140144.00
  0
VERTEX
  8
VIRTUAL_SEGMENT_LOT
 10
513221.00
 20
1140295.00
  0
SEQEND
  8
VIRTUAL_SEGMENT_LOT
  0
POLYLINE
  8
BDRY_TWP_LOT-SURVEYED
 66
     1
 62
     2
  6
DASHDOT2
  0
VERTEX
  8
BDRY_TWP_LOT-SURVEYED
 10
510729.00
 20
1140553.00
  0
VERTEX
  8
BDRY_TWP_LOT-SURVEYED
 10
510729.00
 20
1140000.00
  0
SEQEND
  8
BDRY_TWP_LOT-SURVEYED
  0
POLYLINE
  8
BDRY_TWP_LOT_UNSURVEYED
 66
     1
 62
     2
  6
DIVIDE
  0
VERTEX
  8
BDRY_TWP_LOT_UNSURVEYED
 10
511561.00
 20
1140547.00
  0
VERTEX
  8
BDRY_TWP_LOT_UNSURVEYED
 10
511568.00
 20
1140000.00
  0
SEQEND
  8
BDRY_TWP_LOT_UNSURVEYED
  0
POLYLINE
  8
BDRY_TWP_LOT-SURVEYED
 66
     1
 62
     2
  6
DASHDOT2
  0
VERTEX
  8
BDRY_TWP_LOT-SURVEYED
 10
512387.00
 20
1140543.00
  0
VERTEX
  8
BDRY_TWP_LOT-SURVEYED
 10
512390.00
 20
1140363.00
  0
VERTEX
  8
BDRY_TWP_LOT-SURVEYED
 10
512396.00
 20
1140000.00
  0
SEQEND
  8
BDRY_TWP_LOT-SURVEYED
  0
POLYLINE
  8
BDRY_TWP_LOT_UNSURVEYED
 66
     1
 62
     2
  6
DIVIDE
  0
VERTEX
  8
BDRY_TWP_LOT_UNSURVEYED
 10
513221.00
 20
1140000.00
  0
VERTEX
  8
BDRY_TWP_LOT_UNSURVEYED
 10
513221.00
 20
1140144.00
  0
SEQEND
  8
BDRY_TWP_LOT_UNSURVEYED
  0
POLYLINE
  8
BDRY_TWP
 66
     1
 62
     4
  6
CONTINUOUS
  0
VERTEX
  8
BDRY_TWP
 10
513933.00
 20
1140326.00
  0
VERTEX
  8
BDRY_TWP
 10
513933.00
 20
1140000.00
  0
SEQEND
  8
BDRY_TWP
  0
POLYLINE
  8
BDRY_TWP_LOT_UNSURVEYED
 66
     1
 62
     2
  6
DIVIDE
  0
VERTEX
  8
BDRY_TWP_LOT_UNSURVEYED
 10
514720.00
 20
1140533.00
  0
VERTEX
  8
BDRY_TWP_LOT_UNSURVEYED
 10
514721.00
 20
1140000.00
  0
SEQEND
  8
BDRY_TWP_LOT_UNSURVEYED
  0
POLYLINE
  8
BDRY_TWP_LOT-SURVEYED
 66
     1
 62
     2
  6
DASHDOT2
  0
VERTEX
  8
BDRY_TWP_LOT-SURVEYED
 10
515517.00
 20
1140528.00
  0
VERTEX
  8
BDRY_TWP_LOT-SURVEYED
 10
515518.00
 20
1140444.00
  0
VERTEX
  8
BDRY_TWP_LOT-SURVEYED
 10
515521.00
 20
1140000.00
  0
SEQEND
  8
BDRY_TWP_LOT-SURVEYED
  0
POLYLINE
  8
BDRY_TWP_LOT_UNSURVEYED
 66
     1
 62
     2
  6
DIVIDE
  0
VERTEX
  8
BDRY_TWP_LOT_UNSURVEYED
 10
516308.00
 20
1140436.00
  0
VERTEX
  8
BDRY_TWP_LOT_UNSURVEYED
 10
516311.00
 20
1140000.00
  0
SEQEND
  8
BDRY_TWP_LOT_UNSURVEYED
  0
POLYLINE
  8
BDRY_TWP_LOT-SURVEYED
 66
     1
 62
     2
  6
DASHDOT2
  0
VERTEX
  8
BDRY_TWP_LOT-SURVEYED
 10
517091.00
 20
1140541.00
  0
VERTEX
  8
BDRY_TWP_LOT-SURVEYED
 10
517087.00
 20
1140000.00
  0
SEQEND
  8
BDRY_TWP_LOT-SURVEYED
  0
POLYLINE
  8
BDRY_TWP_LOT_UNSURVEYED
 66
     1
 62
     2
  6
DIVIDE
  0
VERTEX
  8
BDRY_TWP_LOT_UNSURVEYED
 10
517891.00
 20
1140544.00
  0
VERTEX
  8
BDRY_TWP_LOT_UNSURVEYED
 10
517888.00
 20
1140000.00
  0
SEQEND
  8
BDRY_TWP_LOT_UNSURVEYED
  0
POLYLINE
  8
BDRY_TWP_LOT-SURVEYED
 66
     1
 62
     2
  6
DASHDOT2
  0
VERTEX
  8
BDRY_TWP_LOT-SURVEYED
 10
518676.00
 20
1140546.00
  0
VERTEX
  8
BDRY_TWP_LOT-SURVEYED
 10
518673.00
 20
1140000.00
  0
SEQEND
  8
BDRY_TWP_LOT-SURVEYED
  0
POLYLINE
  8
BDRY_TWP_LOT-SURVEYED
 66
     1
 62
     2
  6
DASHDOT2
  0
VERTEX
  8
BDRY_TWP_LOT-SURVEYED
 10
510689.00
 20
1148596.00
  0
VERTEX
  8
BDRY_TWP_LOT-SURVEYED
 10
511416.00
 20
1148608.00
  0
SEQEND
  8
BDRY_TWP_LOT-SURVEYED
  0
POLYLINE
  8
BDRY_TWP_LOT-SURVEYED
 66
     1
 62
     2
  6
DASHDOT2
  0
VERTEX
  8
BDRY_TWP_LOT-SURVEYED
 10
510682.00
 20
1150000.00
  0
VERTEX
  8
BDRY_TWP_LOT-SURVEYED
 10
510688.00
 20
1148651.00
  0
VERTEX
  8
BDRY_TWP_LOT-SURVEYED
 10
510689.00
 20
1148596.00
  0
SEQEND
  8
BDRY_TWP_LOT-SURVEYED
  0
POLYLINE
  8
BDRY_TWP_LOT-SURVEYED
 66
     1
 62
     2
  6
DASHDOT2
  0
VERTEX
  8
BDRY_TWP_LOT-SURVEYED
 10
510000.00
 20
1148589.00
  0
VERTEX
  8
BDRY_TWP_LOT-SURVEYED
 10
510689.00
 20
1148596.00
  0
SEQEND
  8
BDRY_TWP_LOT-SURVEYED
  0
POLYLINE
  8
BDRY_TWP_LOT-SURVEYED
 66
     1
 62
     2
  6
DASHDOT2
  0
VERTEX
  8
BDRY_TWP_LOT-SURVEYED
 10
519744.00
 20
1148544.00
  0
VERTEX
  8
BDRY_TWP_LOT-SURVEYED
 10
520000.00
 20
1148544.00
  0
SEQEND
  8
BDRY_TWP_LOT-SURVEYED
  0
POLYLINE
  8
VIRTUAL_SEGMENT_LOT
 66
     1
 62
    14
  6
CONTINUOUS
  0
VERTEX
  8
VIRTUAL_SEGMENT_LOT
 10
519580.00
 20
1148543.00
  0
VERTEX
  8
VIRTUAL_SEGMENT_LOT
 10
519744.00
 20
1148544.00
  0
SEQEND
  8
VIRTUAL_SEGMENT_LOT
  0
POLYLINE
  8
BDRY_TWP_LOT-SURVEYED
 66
     1
 62
     2
  6
DASHDOT2
  0
VERTEX
  8
BDRY_TWP_LOT-SURVEYED
 10
510689.00
 20
1148596.00
  0
VERTEX
  8
BDRY_TWP_LOT-SURVEYED
 10
510697.00
 20
1147051.00
  0
VERTEX
  8
BDRY_TWP_LOT-SURVEYED
 10
510697.00
 20
1146985.00
  0
SEQEND
  8
BDRY_TWP_LOT-SURVEYED
  0
POLYLINE
  8
BDRY_TWP_LOT-SURVEYED
 66
     1
 62
     2
  6
DASHDOT2
  0
VERTEX
  8
BDRY_TWP_LOT-SURVEYED
 10
510000.00
 20
1146989.00
  0
VERTEX
  8
BDRY_TWP_LOT-SURVEYED
 10
510697.00
 20
1146985.00
  0
SEQEND
  8
BDRY_TWP_LOT-SURVEYED
  0
POLYLINE
  8
BDRY_TWP_LOT-SURVEYED
 66
     1
 62
     2
  6
DASHDOT2
  0
VERTEX
  8
BDRY_TWP_LOT-SURVEYED
 10
510697.00
 20
1146985.00
  0
VERTEX
  8
BDRY_TWP_LOT-SURVEYED
 10
510752.00
 20
1146985.00
  0
SEQEND
  8
BDRY_TWP_LOT-SURVEYED
  0
POLYLINE
  8
BDRY_TWP_LOT_UNSURVEYED
 66
     1
 62
     2
  6
DIVIDE
  0
VERTEX
  8
BDRY_TWP_LOT_UNSURVEYED
 10
519555.00
 20
1147282.00
  0
VERTEX
  8
BDRY_TWP_LOT_UNSURVEYED
 10
519556.00
 20
1146996.00
  0
VERTEX
  8
BDRY_TWP_LOT_UNSURVEYED
 10
519556.00
 20
1146984.00
  0
SEQEND
  8
BDRY_TWP_LOT_UNSURVEYED
  0
POLYLINE
  8
BDRY_TWP_LOT-SURVEYED
 66
     1
 62
     2
  6
DASHDOT2
  0
VERTEX
  8
BDRY_TWP_LOT-SURVEYED
 10
518747.00
 20
1146993.00
  0
VERTEX
  8
BDRY_TWP_LOT-SURVEYED
 10
519472.00
 20
1146984.00
  0
VERTEX
  8
BDRY_TWP_LOT-SURVEYED
 10
519556.00
 20
1146984.00
  0
SEQEND
  8
BDRY_TWP_LOT-SURVEYED
  0
POLYLINE
  8
BDRY_TWP_LOT-SURVEYED
 66
     1
 62
     2
  6
DASHDOT2
  0
VERTEX
  8
BDRY_TWP_LOT-SURVEYED
 10
519556.00
 20
1146984.00
  0
VERTEX
  8
BDRY_TWP_LOT-SURVEYED
 10
520000.00
 20
1146979.00
  0
SEQEND
  8
BDRY_TWP_LOT-SURVEYED
  0
POLYLINE
  8
BDRY_TWP_LOT-SURVEYED
 66
     1
 62
     2
  6
DASHDOT2
  0
VERTEX
  8
BDRY_TWP_LOT-SURVEYED
 10
510697.00
 20
1146985.00
  0
VERTEX
  8
BDRY_TWP_LOT-SURVEYED
 10
510697.00
 20
1146951.00
  0
SEQEND
  8
BDRY_TWP_LOT-SURVEYED
  0
POLYLINE
  8
BDRY_TWP_LOT_UNSURVEYED
 66
     1
 62
     2
  6
DIVIDE
  0
VERTEX
  8
BDRY_TWP_LOT_UNSURVEYED
 10
519556.00
 20
1146984.00
  0
VERTEX
  8
BDRY_TWP_LOT_UNSURVEYED
 10
519536.00
 20
1145832.00
  0
SEQEND
  8
BDRY_TWP_LOT_UNSURVEYED
  0
POLYLINE
  8
BDRY_TWP_LOT-SURVEYED
 66
     1
 62
     2
  6
DASHDOT2
  0
VERTEX
  8
BDRY_TWP_LOT-SURVEYED
 10
519530.00
 20
1145475.00
  0
VERTEX
  8
BDRY_TWP_LOT-SURVEYED
 10
520000.00
 20
1145479.00
  0
SEQEND
  8
BDRY_TWP_LOT-SURVEYED
  0
POLYLINE
  8
BDRY_TWP_LOT_UNSURVEYED
 66
     1
 62
     2
  6
DIVIDE
  0
VERTEX
  8
BDRY_TWP_LOT_UNSURVEYED
 10
519535.00
 20
1145788.00
  0
VERTEX
  8
BDRY_TWP_LOT_UNSURVEYED
 10
519530.00
 20
1145475.00
  0
SEQEND
  8
BDRY_TWP_LOT_UNSURVEYED
  0
POLYLINE
  8
BDRY_TWP_LOT-SURVEYED
 66
     1
 62
     2
  6
DASHDOT2
  0
VERTEX
  8
BDRY_TWP_LOT-SURVEYED
 10
518739.00
 20
1145465.00
  0
VERTEX
  8
BDRY_TWP_LOT-SURVEYED
 10
519485.00
 20
1145474.00
  0
VERTEX
  8
BDRY_TWP_LOT-SURVEYED
 10
519530.00
 20
1145475.00
  0
SEQEND
  8
BDRY_TWP_LOT-SURVEYED
  0
POLYLINE
  8
BDRY_TWP_LOT-SURVEYED
 66
     1
 62
     2
  6
DASHDOT2
  0
VERTEX
  8
BDRY_TWP_LOT-SURVEYED
 10
510707.00
 20
1145394.00
  0
VERTEX
  8
BDRY_TWP_LOT-SURVEYED
 10
510961.00
 20
1145395.00
  0
SEQEND
  8
BDRY_TWP_LOT-SURVEYED
  0
POLYLINE
  8
BDRY_TWP_LOT-SURVEYED
 66
     1
 62
     2
  6
DASHDOT2
  0
VERTEX
  8
BDRY_TWP_LOT-SURVEYED
 10
510698.00
 20
1146806.00
  0
VERTEX
  8
BDRY_TWP_LOT-SURVEYED
 10
510707.00
 20
1145458.00
  0
VERTEX
  8
BDRY_TWP_LOT-SURVEYED
 10
510707.00
 20
1145394.00
  0
SEQEND
  8
BDRY_TWP_LOT-SURVEYED
  0
POLYLINE
  8
BDRY_TWP_LOT-SURVEYED
 66
     1
 62
     2
  6
DASHDOT2
  0
VERTEX
  8
BDRY_TWP_LOT-SURVEYED
 10
510000.00
 20
1145402.00
  0
VERTEX
  8
BDRY_TWP_LOT-SURVEYED
 10
510602.00
 20
1145394.00
  0
VERTEX
  8
BDRY_TWP_LOT-SURVEYED
 10
510707.00
 20
1145394.00
  0
SEQEND
  8
BDRY_TWP_LOT-SURVEYED
  0
POLYLINE
  8
BDRY_TWP_LOT-SURVEYED
 66
     1
 62
     2
  6
DASHDOT2
  0
VERTEX
  8
BDRY_TWP_LOT-SURVEYED
 10
510707.00
 20
1145394.00
  0
VERTEX
  8
BDRY_TWP_LOT-SURVEYED
 10
510708.00
 20
1145377.00
  0
SEQEND
  8
BDRY_TWP_LOT-SURVEYED
  0
POLYLINE
  8
VIRTUAL_SEGMENT_LOT
 66
     1
 62
    14
  6
CONTINUOUS
  0
VERTEX
  8
VIRTUAL_SEGMENT_LOT
 10
510708.00
 20
1145377.00
  0
VERTEX
  8
VIRTUAL_SEGMENT_LOT
 10
510708.00
 20
1145351.00
  0
SEQEND
  8
VIRTUAL_SEGMENT_LOT
  0
POLYLINE
  8
BDRY_TWP_LOT_UNSURVEYED
 66
     1
 62
     2
  6
DIVIDE
  0
VERTEX
  8
BDRY_TWP_LOT_UNSURVEYED
 10
519530.00
 20
1145475.00
  0
VERTEX
  8
BDRY_TWP_LOT_UNSURVEYED
 10
519530.00
 20
1145472.00
  0
VERTEX
  8
BDRY_TWP_LOT_UNSURVEYED
 10
519529.00
 20
1144865.00
  0
SEQEND
  8
BDRY_TWP_LOT_UNSURVEYED
  0
POLYLINE
  8
BDRY_TWP
 66
     1
 62
     4
  6
CONTINUOUS
  0
VERTEX
  8
BDRY_TWP
 10
510000.00
 20
1143797.00
  0
VERTEX
  8
BDRY_TWP
 10
510073.00
 20
1143793.00
  0
SEQEND
  8
BDRY_TWP
  0
POLYLINE
  8
BDRY_TWP
 66
     1
 62
     4
  6
CONTINUOUS
  0
VERTEX
  8
BDRY_TWP
 10
510073.00
 20
1143793.00
  0
VERTEX
  8
BDRY_TWP
 10
510710.00
 20
1143792.00
  0
SEQEND
  8
BDRY_TWP
  0
POLYLINE
  8
BDRY_TWP_LOT_UNSURVEYED
 66
     1
 62
     2
  6
DIVIDE
  0
VERTEX
  8
BDRY_TWP_LOT_UNSURVEYED
 10
519529.00
 20
1144853.00
  0
VERTEX
  8
BDRY_TWP_LOT_UNSURVEYED
 10
519529.00
 20
1143744.00
  0
SEQEND
  8
BDRY_TWP_LOT_UNSURVEYED
  0
POLYLINE
  8
BDRY_TWP
 66
     1
 62
     4
  6
CONTINUOUS
  0
VERTEX
  8
BDRY_TWP
 10
519456.00
 20
1143745.00
  0
VERTEX
  8
BDRY_TWP
 10
519529.00
 20
1143744.00
  0
SEQEND
  8
BDRY_TWP
  0
POLYLINE
  8
BDRY_TWP
 66
     1
 62
     4
  6
CONTINUOUS
  0
VERTEX
  8
BDRY_TWP
 10
519529.00
 20
1143744.00
  0
VERTEX
  8
BDRY_TWP
 10
519777.00
 20
1143741.00
  0
VERTEX
  8
BDRY_TWP
 10
520000.00
 20
1143747.00
  0
SEQEND
  8
BDRY_TWP
  0
POLYLINE
  8
BDRY_TWP_LOT_UNSURVEYED
 66
     1
 62
     2
  6
DIVIDE
  0
VERTEX
  8
BDRY_TWP_LOT_UNSURVEYED
 10
510073.00
 20
1143793.00
  0
VERTEX
  8
BDRY_TWP_LOT_UNSURVEYED
 10
510072.00
 20
1143616.00
  0
SEQEND
  8
BDRY_TWP_LOT_UNSURVEYED
  0
POLYLINE
  8
BDRY_TWP_LOT_UNSURVEYED
 66
     1
 62
     2
  6
DIVIDE
  0
VERTEX
  8
BDRY_TWP_LOT_UNSURVEYED
 10
510072.00
 20
1143505.00
  0
VERTEX
  8
BDRY_TWP_LOT_UNSURVEYED
 10
510068.00
 20
1142482.00
  0
VERTEX
  8
BDRY_TWP_LOT_UNSURVEYED
 10
510068.00
 20
1142166.00
  0
SEQEND
  8
BDRY_TWP_LOT_UNSURVEYED
  0
POLYLINE
  8
BDRY_TWP_LOT-SURVEYED
 66
     1
 62
     2
  6
DASHDOT2
  0
VERTEX
  8
BDRY_TWP_LOT-SURVEYED
 10
510000.00
 20
1142167.00
  0
VERTEX
  8
BDRY_TWP_LOT-SURVEYED
 10
510068.00
 20
1142166.00
  0
SEQEND
  8
BDRY_TWP_LOT-SURVEYED
  0
POLYLINE
  8
BDRY_TWP_LOT-SURVEYED
 66
     1
 62
     2
  6
DASHDOT2
  0
VERTEX
  8
BDRY_TWP_LOT-SURVEYED
 10
510068.00
 20
1142166.00
  0
VERTEX
  8
BDRY_TWP_LOT-SURVEYED
 10
510452.00
 20
1142159.00
  0
SEQEND
  8
BDRY_TWP_LOT-SURVEYED
  0
POLYLINE
  8
VIRTUAL_SEGMENT_LOT
 66
     1
 62
    14
  6
CONTINUOUS
  0
VERTEX
  8
VIRTUAL_SEGMENT_LOT
 10
519850.00
 20
1142143.00
  0
VERTEX
  8
VIRTUAL_SEGMENT_LOT
 10
520000.00
 20
1142142.00
  0
SEQEND
  8
VIRTUAL_SEGMENT_LOT
  0
POLYLINE
  8
BDRY_TWP_LOT-SURVEYED
 66
     1
 62
     2
  6
DASHDOT2
  0
VERTEX
  8
BDRY_TWP_LOT-SURVEYED
 10
519483.00
 20
1142141.00
  0
VERTEX
  8
BDRY_TWP_LOT-SURVEYED
 10
519850.00
 20
1142143.00
  0
SEQEND
  8
BDRY_TWP_LOT-SURVEYED
  0
POLYLINE
  8
BDRY_TWP_LOT_UNSURVEYED
 66
     1
 62
     2
  6
DIVIDE
  0
VERTEX
  8
BDRY_TWP_LOT_UNSURVEYED
 10
510068.00
 20
1142166.00
  0
VERTEX
  8
BDRY_TWP_LOT_UNSURVEYED
 10
510071.00
 20
1141196.00
  0
VERTEX
  8
BDRY_TWP_LOT_UNSURVEYED
 10
510076.00
 20
1140558.00
  0
SEQEND
  8
BDRY_TWP_LOT_UNSURVEYED
  0
POLYLINE
  8
BDRY_TWP_LOT-SURVEYED
 66
     1
 62
     2
  6
DASHDOT2
  0
VERTEX
  8
BDRY_TWP_LOT-SURVEYED
 10
510000.00
 20
1140565.00
  0
VERTEX
  8
BDRY_TWP_LOT-SURVEYED
 10
510076.00
 20
1140558.00
  0
SEQEND
  8
BDRY_TWP_LOT-SURVEYED
  0
POLYLINE
  8
BDRY_TWP_LOT-SURVEYED
 66
     1
 62
     2
  6
DASHDOT2
  0
VERTEX
  8
BDRY_TWP_LOT-SURVEYED
 10
510076.00
 20
1140558.00
  0
VERTEX
  8
BDRY_TWP_LOT-SURVEYED
 10
510181.00
 20
1140557.00
  0
SEQEND
  8
BDRY_TWP_LOT-SURVEYED
  0
POLYLINE
  8
BDRY_TWP_LOT_UNSURVEYED
 66
     1
 62
     2
  6
DIVIDE
  0
VERTEX
  8
BDRY_TWP_LOT_UNSURVEYED
 10
519482.00
 20
1141038.00
  0
VERTEX
  8
BDRY_TWP_LOT_UNSURVEYED
 10
519480.00
 20
1140704.00
  0
VERTEX
  8
BDRY_TWP_LOT_UNSURVEYED
 10
519478.00
 20
1140542.00
  0
SEQEND
  8
BDRY_TWP_LOT_UNSURVEYED
  0
POLYLINE
  8
VIRTUAL_SEGMENT_LOT
 66
     1
 62
    14
  6
CONTINUOUS
  0
VERTEX
  8
VIRTUAL_SEGMENT_LOT
 10
518834.00
 20
1140547.00
  0
VERTEX
  8
VIRTUAL_SEGMENT_LOT
 10
519478.00
 20
1140542.00
  0
SEQEND
  8
VIRTUAL_SEGMENT_LOT
  0
POLYLINE
  8
VIRTUAL_SEGMENT_LOT
 66
     1
 62
    14
  6
CONTINUOUS
  0
VERTEX
  8
VIRTUAL_SEGMENT_LOT
 10
519478.00
 20
1140542.00
  0
VERTEX
  8
VIRTUAL_SEGMENT_LOT
 10
519510.00
 20
1140541.00
  0
SEQEND
  8
VIRTUAL_SEGMENT_LOT
  0
POLYLINE
  8
BDRY_TWP_LOT-SURVEYED
 66
     1
 62
     2
  6
DASHDOT2
  0
VERTEX
  8
BDRY_TWP_LOT-SURVEYED
 10
519510.00
 20
1140541.00
  0
VERTEX
  8
BDRY_TWP_LOT-SURVEYED
 10
520000.00
 20
1140539.00
  0
SEQEND
  8
BDRY_TWP_LOT-SURVEYED
  0
POLYLINE
  8
BDRY_TWP_LOT_UNSURVEYED
 66
     1
 62
     2
  6
DIVIDE
  0
VERTEX
  8
BDRY_TWP_LOT_UNSURVEYED
 10
510076.00
 20
1140558.00
  0
VERTEX
  8
BDRY_TWP_LOT_UNSURVEYED
 10
510080.00
 20
1140000.00
  0
SEQEND
  8
BDRY_TWP_LOT_UNSURVEYED
  0
POLYLINE
  8
BDRY_TWP_LOT_UNSURVEYED
 66
     1
 62
     2
  6
DIVIDE
  0
VERTEX
  8
BDRY_TWP_LOT_UNSURVEYED
 10
519478.00
 20
1140542.00
  0
VERTEX
  8
BDRY_TWP_LOT_UNSURVEYED
 10
519469.00
 20
1140000.00
  0
SEQEND
  8
BDRY_TWP_LOT_UNSURVEYED
  0
ENDSEC
  0
EOF
