  0
SECTION
  2
HEADER
  9
$DWGCODEPAGE
  3
iso8859-1
  9
$EXTMIN
 10
510000.00
 20
1140000.00
  9
$EXTMAX
 10
520000.00
 20
1150000.00
  9
$LUPREC
 70
    14
  0
ENDSEC
  0
SECTION
  2
TABLES
  0
ENDSEC
  0
SECTION
  2
BLOCKS
  0
ENDSEC
  0
SECTION
  2
ENTITIES
  0
POLYLINE
  8
ACCESSWAY_CENTRELINE
 66
     1
 62
     1
  6
DASHED
  0
VERTEX
  8
ACCESSWAY_CENTRELINE
 10
517379.00
 20
1150000.00
  0
VERTEX
  8
ACCESSWAY_CENTRELINE
 10
517389.00
 20
1149989.00
  0
VERTEX
  8
ACCESSWAY_CENTRELINE
 10
517409.00
 20
1149964.00
  0
VERTEX
  8
ACCESSWAY_CENTRELINE
 10
517416.00
 20
1149951.00
  0
VERTEX
  8
ACCESSWAY_CENTRELINE
 10
517418.00
 20
1149913.00
  0
VERTEX
  8
ACCESSWAY_CENTRELINE
 10
517408.00
 20
1149875.00
  0
VERTEX
  8
ACCESSWAY_CENTRELINE
 10
517390.00
 20
1149851.00
  0
VERTEX
  8
ACCESSWAY_CENTRELINE
 10
517363.00
 20
1149824.00
  0
VERTEX
  8
ACCESSWAY_CENTRELINE
 10
517349.00
 20
1149810.00
  0
VERTEX
  8
ACCESSWAY_CENTRELINE
 10
517337.00
 20
1149797.00
  0
VERTEX
  8
ACCESSWAY_CENTRELINE
 10
517326.00
 20
1149755.00
  0
VERTEX
  8
ACCESSWAY_CENTRELINE
 10
517307.00
 20
1149710.00
  0
VERTEX
  8
ACCESSWAY_CENTRELINE
 10
517273.00
 20
1149652.00
  0
VERTEX
  8
ACCESSWAY_CENTRELINE
 10
517249.00
 20
1149575.00
  0
VERTEX
  8
ACCESSWAY_CENTRELINE
 10
517235.00
 20
1149514.00
  0
VERTEX
  8
ACCESSWAY_CENTRELINE
 10
517209.00
 20
1149465.00
  0
VERTEX
  8
ACCESSWAY_CENTRELINE
 10
517163.00
 20
1149412.00
  0
VERTEX
  8
ACCESSWAY_CENTRELINE
 10
517130.00
 20
1149393.00
  0
VERTEX
  8
ACCESSWAY_CENTRELINE
 10
517076.00
 20
1149379.00
  0
VERTEX
  8
ACCESSWAY_CENTRELINE
 10
517035.00
 20
1149358.00
  0
VERTEX
  8
ACCESSWAY_CENTRELINE
 10
516954.00
 20
1149294.00
  0
VERTEX
  8
ACCESSWAY_CENTRELINE
 10
516937.00
 20
1149272.00
  0
VERTEX
  8
ACCESSWAY_CENTRELINE
 10
516926.00
 20
1149253.00
  0
VERTEX
  8
ACCESSWAY_CENTRELINE
 10
516919.00
 20
1149226.00
  0
VERTEX
  8
ACCESSWAY_CENTRELINE
 10
516908.00
 20
1149166.00
  0
VERTEX
  8
ACCESSWAY_CENTRELINE
 10
516895.00
 20
1149130.00
  0
VERTEX
  8
ACCESSWAY_CENTRELINE
 10
516866.00
 20
1149098.00
  0
VERTEX
  8
ACCESSWAY_CENTRELINE
 10
516770.00
 20
1149053.00
  0
VERTEX
  8
ACCESSWAY_CENTRELINE
 10
516741.00
 20
1149036.00
  0
VERTEX
  8
ACCESSWAY_CENTRELINE
 10
516725.00
 20
1149018.00
  0
VERTEX
  8
ACCESSWAY_CENTRELINE
 10
516723.00
 20
1149015.00
  0
SEQEND
  8
ACCESSWAY_CENTRELINE
  0
POLYLINE
  8
TRANSMISSION_LINE_CROSS_COUNTRY
 66
     1
 62
     7
  6
DASHDOT
  0
VERTEX
  8
TRANSMISSION_LINE_CROSS_COUNTRY
 10
516180.00
 20
1149023.00
  0
VERTEX
  8
TRANSMISSION_LINE_CROSS_COUNTRY
 10
516723.00
 20
1149015.00
  0
SEQEND
  8
TRANSMISSION_LINE_CROSS_COUNTRY
  0
POLYLINE
  8
TRANSMISSION_LINE_CROSS_COUNTRY
 66
     1
 62
     7
  6
DASHDOT
  0
VERTEX
  8
TRANSMISSION_LINE_CROSS_COUNTRY
 10
516723.00
 20
1149015.00
  0
VERTEX
  8
TRANSMISSION_LINE_CROSS_COUNTRY
 10
516950.00
 20
1149012.00
  0
VERTEX
  8
TRANSMISSION_LINE_CROSS_COUNTRY
 10
517551.00
 20
1149002.00
  0
VERTEX
  8
TRANSMISSION_LINE_CROSS_COUNTRY
 10
517643.00
 20
1148959.00
  0
SEQEND
  8
TRANSMISSION_LINE_CROSS_COUNTRY
  0
POLYLINE
  8
RAIL_LINE
 66
     1
 62
     6
  6
CONTINUOUS
  0
VERTEX
  8
RAIL_LINE
 10
517901.00
 20
1148777.00
  0
VERTEX
  8
RAIL_LINE
 10
517891.00
 20
1148882.00
  0
VERTEX
  8
RAIL_LINE
 10
517878.00
 20
1148927.00
  0
VERTEX
  8
RAIL_LINE
 10
517868.00
 20
1148953.00
  0
SEQEND
  8
RAIL_LINE
  0
POLYLINE
  8
ACCESSWAY_CENTRELINE
 66
     1
 62
     1
  6
DASHED
  0
VERTEX
  8
ACCESSWAY_CENTRELINE
 10
517901.00
 20
1148777.00
  0
VERTEX
  8
ACCESSWAY_CENTRELINE
 10
517895.00
 20
1148775.00
  0
SEQEND
  8
ACCESSWAY_CENTRELINE
  0
POLYLINE
  8
ACCESSWAY_CENTRELINE
 66
     1
 62
     1
  6
DASHED
  0
VERTEX
  8
ACCESSWAY_CENTRELINE
 10
517895.00
 20
1148775.00
  0
VERTEX
  8
ACCESSWAY_CENTRELINE
 10
517863.00
 20
1148824.00
  0
VERTEX
  8
ACCESSWAY_CENTRELINE
 10
517842.00
 20
1148865.00
  0
VERTEX
  8
ACCESSWAY_CENTRELINE
 10
517822.00
 20
1148928.00
  0
VERTEX
  8
ACCESSWAY_CENTRELINE
 10
517807.00
 20
1148991.00
  0
VERTEX
  8
ACCESSWAY_CENTRELINE
 10
517793.00
 20
1149039.00
  0
VERTEX
  8
ACCESSWAY_CENTRELINE
 10
517774.00
 20
1149090.00
  0
VERTEX
  8
ACCESSWAY_CENTRELINE
 10
517756.00
 20
1149140.00
  0
SEQEND
  8
ACCESSWAY_CENTRELINE
  0
POLYLINE
  8
ROAD_CENTRELINE
 66
     1
 62
     1
  6
CONTINUOUS
  0
VERTEX
  8
ROAD_CENTRELINE
 10
511715.00
 20
1148836.00
  0
VERTEX
  8
ROAD_CENTRELINE
 10
511792.00
 20
1148821.00
  0
VERTEX
  8
ROAD_CENTRELINE
 10
511879.00
 20
1148793.00
  0
VERTEX
  8
ROAD_CENTRELINE
 10
512035.00
 20
1148746.00
  0
VERTEX
  8
ROAD_CENTRELINE
 10
512060.00
 20
1148738.00
  0
SEQEND
  8
ROAD_CENTRELINE
  0
POLYLINE
  8
ROAD_CENTRELINE
 66
     1
 62
     1
  6
CONTINUOUS
  0
VERTEX
  8
ROAD_CENTRELINE
 10
512467.00
 20
1150000.00
  0
VERTEX
  8
ROAD_CENTRELINE
 10
512482.00
 20
1149898.00
  0
VERTEX
  8
ROAD_CENTRELINE
 10
512513.00
 20
1149673.00
  0
VERTEX
  8
ROAD_CENTRELINE
 10
512515.00
 20
1149603.00
  0
VERTEX
  8
ROAD_CENTRELINE
 10
512510.00
 20
1149562.00
  0
VERTEX
  8
ROAD_CENTRELINE
 10
512496.00
 20
1149522.00
  0
VERTEX
  8
ROAD_CENTRELINE
 10
512473.00
 20
1149477.00
  0
VERTEX
  8
ROAD_CENTRELINE
 10
512358.00
 20
1149351.00
  0
VERTEX
  8
ROAD_CENTRELINE
 10
512266.00
 20
1149255.00
  0
VERTEX
  8
ROAD_CENTRELINE
 10
512250.00
 20
1149227.00
  0
VERTEX
  8
ROAD_CENTRELINE
 10
512239.00
 20
1149199.00
  0
VERTEX
  8
ROAD_CENTRELINE
 10
512233.00
 20
1149175.00
  0
VERTEX
  8
ROAD_CENTRELINE
 10
512230.00
 20
1149116.00
  0
VERTEX
  8
ROAD_CENTRELINE
 10
512223.00
 20
1148902.00
  0
VERTEX
  8
ROAD_CENTRELINE
 10
512221.00
 20
1148812.00
  0
VERTEX
  8
ROAD_CENTRELINE
 10
512218.00
 20
1148792.00
  0
VERTEX
  8
ROAD_CENTRELINE
 10
512198.00
 20
1148733.00
  0
VERTEX
  8
ROAD_CENTRELINE
 10
512186.00
 20
1148696.00
  0
SEQEND
  8
ROAD_CENTRELINE
  0
POLYLINE
  8
ROAD_CENTRELINE
 66
     1
 62
     1
  6
CONTINUOUS
  0
VERTEX
  8
ROAD_CENTRELINE
 10
511715.00
 20
1148836.00
  0
VERTEX
  8
ROAD_CENTRELINE
 10
511712.00
 20
1148687.00
  0
SEQEND
  8
ROAD_CENTRELINE
  0
POLYLINE
  8
ROAD_CENTRELINE
 66
     1
 62
     1
  6
CONTINUOUS
  0
VERTEX
  8
ROAD_CENTRELINE
 10
511712.00
 20
1148687.00
  0
VERTEX
  8
ROAD_CENTRELINE
 10
511766.00
 20
1148685.00
  0
SEQEND
  8
ROAD_CENTRELINE
  0
POLYLINE
  8
ACCESSWAY_CENTRELINE
 66
     1
 62
     1
  6
DASHED
  0
VERTEX
  8
ACCESSWAY_CENTRELINE
 10
517895.00
 20
1148775.00
  0
VERTEX
  8
ACCESSWAY_CENTRELINE
 10
517888.00
 20
1148773.00
  0
VERTEX
  8
ACCESSWAY_CENTRELINE
 10
517814.00
 20
1148742.00
  0
VERTEX
  8
ACCESSWAY_CENTRELINE
 10
517797.00
 20
1148725.00
  0
VERTEX
  8
ACCESSWAY_CENTRELINE
 10
517785.00
 20
1148711.00
  0
VERTEX
  8
ACCESSWAY_CENTRELINE
 10
517766.00
 20
1148690.00
  0
VERTEX
  8
ACCESSWAY_CENTRELINE
 10
517725.00
 20
1148670.00
  0
VERTEX
  8
ACCESSWAY_CENTRELINE
 10
517687.00
 20
1148665.00
  0
VERTEX
  8
ACCESSWAY_CENTRELINE
 10
517669.00
 20
1148661.00
  0
VERTEX
  8
ACCESSWAY_CENTRELINE
 10
517654.00
 20
1148657.00
  0
SEQEND
  8
ACCESSWAY_CENTRELINE
  0
POLYLINE
  8
RAIL_LINE
 66
     1
 62
     6
  6
CONTINUOUS
  0
VERTEX
  8
RAIL_LINE
 10
517860.00
 20
1148626.00
  0
VERTEX
  8
RAIL_LINE
 10
517878.00
 20
1148662.00
  0
VERTEX
  8
RAIL_LINE
 10
517895.00
 20
1148717.00
  0
VERTEX
  8
RAIL_LINE
 10
517902.00
 20
1148766.00
  0
VERTEX
  8
RAIL_LINE
 10
517901.00
 20
1148777.00
  0
SEQEND
  8
RAIL_LINE
  0
POLYLINE
  8
ROAD_CENTRELINE
 66
     1
 62
     1
  6
CONTINUOUS
  0
VERTEX
  8
ROAD_CENTRELINE
 10
511509.00
 20
1148751.00
  0
VERTEX
  8
ROAD_CENTRELINE
 10
511507.00
 20
1148615.00
  0
SEQEND
  8
ROAD_CENTRELINE
  0
POLYLINE
  8
ROAD_CENTRELINE
 66
     1
 62
     1
  6
CONTINUOUS
  0
VERTEX
  8
ROAD_CENTRELINE
 10
511712.00
 20
1148687.00
  0
VERTEX
  8
ROAD_CENTRELINE
 10
511711.00
 20
1148612.00
  0
SEQEND
  8
ROAD_CENTRELINE
  0
POLYLINE
  8
ROAD_CENTRELINE
 66
     1
 62
     1
  6
CONTINUOUS
  0
VERTEX
  8
ROAD_CENTRELINE
 10
511507.00
 20
1148615.00
  0
VERTEX
  8
ROAD_CENTRELINE
 10
511537.00
 20
1148615.00
  0
VERTEX
  8
ROAD_CENTRELINE
 10
511699.00
 20
1148613.00
  0
VERTEX
  8
ROAD_CENTRELINE
 10
511711.00
 20
1148612.00
  0
SEQEND
  8
ROAD_CENTRELINE
  0
POLYLINE
  8
ROAD_CENTRELINE
 66
     1
 62
     1
  6
CONTINUOUS
  0
VERTEX
  8
ROAD_CENTRELINE
 10
511928.00
 20
1148608.00
  0
VERTEX
  8
ROAD_CENTRELINE
 10
511956.00
 20
1148608.00
  0
SEQEND
  8
ROAD_CENTRELINE
  0
POLYLINE
  8
ROAD_CENTRELINE
 66
     1
 62
     1
  6
CONTINUOUS
  0
VERTEX
  8
ROAD_CENTRELINE
 10
511711.00
 20
1148612.00
  0
VERTEX
  8
ROAD_CENTRELINE
 10
511834.00
 20
1148606.00
  0
VERTEX
  8
ROAD_CENTRELINE
 10
511928.00
 20
1148608.00
  0
SEQEND
  8
ROAD_CENTRELINE
  0
POLYLINE
  8
RAIL_LINE
 66
     1
 62
     6
  6
CONTINUOUS
  0
VERTEX
  8
RAIL_LINE
 10
514598.00
 20
1148593.00
  0
VERTEX
  8
RAIL_LINE
 10
514626.00
 20
1148626.00
  0
VERTEX
  8
RAIL_LINE
 10
514652.00
 20
1148668.00
  0
VERTEX
  8
RAIL_LINE
 10
514666.00
 20
1148707.00
  0
VERTEX
  8
RAIL_LINE
 10
514672.00
 20
1148740.00
  0
VERTEX
  8
RAIL_LINE
 10
514670.00
 20
1148794.00
  0
VERTEX
  8
RAIL_LINE
 10
514658.00
 20
1148837.00
  0
VERTEX
  8
RAIL_LINE
 10
514593.00
 20
1148984.00
  0
VERTEX
  8
RAIL_LINE
 10
514528.00
 20
1149124.00
  0
VERTEX
  8
RAIL_LINE
 10
514489.00
 20
1149203.00
  0
VERTEX
  8
RAIL_LINE
 10
514407.00
 20
1149394.00
  0
VERTEX
  8
RAIL_LINE
 10
514364.00
 20
1149505.00
  0
VERTEX
  8
RAIL_LINE
 10
514300.00
 20
1149649.00
  0
VERTEX
  8
RAIL_LINE
 10
514283.00
 20
1149699.00
  0
VERTEX
  8
RAIL_LINE
 10
514270.00
 20
1149741.00
  0
VERTEX
  8
RAIL_LINE
 10
514223.00
 20
1149897.00
  0
VERTEX
  8
RAIL_LINE
 10
514214.00
 20
1149930.00
  0
VERTEX
  8
RAIL_LINE
 10
514211.00
 20
1149950.00
  0
VERTEX
  8
RAIL_LINE
 10
514204.00
 20
1150000.00
  0
SEQEND
  8
RAIL_LINE
  0
POLYLINE
  8
ROAD_CENTRELINE
 66
     1
 62
     1
  6
CONTINUOUS
  0
VERTEX
  8
ROAD_CENTRELINE
 10
512186.00
 20
1148696.00
  0
VERTEX
  8
ROAD_CENTRELINE
 10
512226.00
 20
1148682.00
  0
VERTEX
  8
ROAD_CENTRELINE
 10
512335.00
 20
1148645.00
  0
VERTEX
  8
ROAD_CENTRELINE
 10
512404.00
 20
1148617.00
  0
VERTEX
  8
ROAD_CENTRELINE
 10
512459.00
 20
1148590.00
  0
VERTEX
  8
ROAD_CENTRELINE
 10
512495.00
 20
1148568.00
  0
SEQEND
  8
ROAD_CENTRELINE
  0
POLYLINE
  8
ROAD_CENTRELINE
 66
     1
 62
     1
  6
CONTINUOUS
  0
VERTEX
  8
ROAD_CENTRELINE
 10
511711.00
 20
1148612.00
  0
VERTEX
  8
ROAD_CENTRELINE
 10
511710.00
 20
1148591.00
  0
VERTEX
  8
ROAD_CENTRELINE
 10
511710.00
 20
1148554.00
  0
SEQEND
  8
ROAD_CENTRELINE
  0
POLYLINE
  8
ROAD_CENTRELINE
 66
     1
 62
     1
  6
CONTINUOUS
  0
VERTEX
  8
ROAD_CENTRELINE
 10
511822.00
 20
1148555.00
  0
VERTEX
  8
ROAD_CENTRELINE
 10
511820.00
 20
1148555.00
  0
VERTEX
  8
ROAD_CENTRELINE
 10
511742.00
 20
1148554.00
  0
VERTEX
  8
ROAD_CENTRELINE
 10
511710.00
 20
1148554.00
  0
SEQEND
  8
ROAD_CENTRELINE
  0
POLYLINE
  8
ROAD_CENTRELINE
 66
     1
 62
     1
  6
CONTINUOUS
  0
VERTEX
  8
ROAD_CENTRELINE
 10
511928.00
 20
1148608.00
  0
VERTEX
  8
ROAD_CENTRELINE
 10
511927.00
 20
1148554.00
  0
SEQEND
  8
ROAD_CENTRELINE
  0
POLYLINE
  8
ROAD_CENTRELINE
 66
     1
 62
     1
  6
CONTINUOUS
  0
VERTEX
  8
ROAD_CENTRELINE
 10
511927.00
 20
1148554.00
  0
VERTEX
  8
ROAD_CENTRELINE
 10
511822.00
 20
1148555.00
  0
SEQEND
  8
ROAD_CENTRELINE
  0
POLYLINE
  8
TRAIL
 66
     1
 62
     2
  6
DIVIDE2
  0
VERTEX
  8
TRAIL
 10
516195.00
 20
1148532.00
  0
VERTEX
  8
TRAIL
 10
516175.00
 20
1148555.00
  0
VERTEX
  8
TRAIL
 10
516158.00
 20
1148563.00
  0
VERTEX
  8
TRAIL
 10
516153.00
 20
1148572.00
  0
VERTEX
  8
TRAIL
 10
516148.00
 20
1148589.00
  0
VERTEX
  8
TRAIL
 10
516146.00
 20
1148604.00
  0
VERTEX
  8
TRAIL
 10
516143.00
 20
1148619.00
  0
SEQEND
  8
TRAIL
  0
POLYLINE
  8
ROAD_CENTRELINE
 66
     1
 62
     1
  6
CONTINUOUS
  0
VERTEX
  8
ROAD_CENTRELINE
 10
512495.00
 20
1148568.00
  0
VERTEX
  8
ROAD_CENTRELINE
 10
512451.00
 20
1148522.00
  0
SEQEND
  8
ROAD_CENTRELINE
  0
POLYLINE
  8
TRAIL
 66
     1
 62
     2
  6
DIVIDE2
  0
VERTEX
  8
TRAIL
 10
512282.00
 20
1148575.00
  0
VERTEX
  8
TRAIL
 10
512286.00
 20
1148575.00
  0
VERTEX
  8
TRAIL
 10
512325.00
 20
1148560.00
  0
VERTEX
  8
TRAIL
 10
512372.00
 20
1148542.00
  0
VERTEX
  8
TRAIL
 10
512394.00
 20
1148535.00
  0
VERTEX
  8
TRAIL
 10
512451.00
 20
1148522.00
  0
SEQEND
  8
TRAIL
  0
POLYLINE
  8
ROAD_CENTRELINE
 66
     1
 62
     1
  6
CONTINUOUS
  0
VERTEX
  8
ROAD_CENTRELINE
 10
511507.00
 20
1148615.00
  0
VERTEX
  8
ROAD_CENTRELINE
 10
511506.00
 20
1148561.00
  0
VERTEX
  8
ROAD_CENTRELINE
 10
511506.00
 20
1148516.00
  0
SEQEND
  8
ROAD_CENTRELINE
  0
POLYLINE
  8
ROAD_CENTRELINE
 66
     1
 62
     1
  6
CONTINUOUS
  0
VERTEX
  8
ROAD_CENTRELINE
 10
511506.00
 20
1148516.00
  0
VERTEX
  8
ROAD_CENTRELINE
 10
511449.00
 20
1148521.00
  0
VERTEX
  8
ROAD_CENTRELINE
 10
511431.00
 20
1148523.00
  0
VERTEX
  8
ROAD_CENTRELINE
 10
511426.00
 20
1148527.00
  0
VERTEX
  8
ROAD_CENTRELINE
 10
511422.00
 20
1148533.00
  0
VERTEX
  8
ROAD_CENTRELINE
 10
511418.00
 20
1148588.00
  0
VERTEX
  8
ROAD_CENTRELINE
 10
511417.00
 20
1148603.00
  0
VERTEX
  8
ROAD_CENTRELINE
 10
511421.00
 20
1148609.00
  0
VERTEX
  8
ROAD_CENTRELINE
 10
511442.00
 20
1148613.00
  0
VERTEX
  8
ROAD_CENTRELINE
 10
511507.00
 20
1148615.00
  0
SEQEND
  8
ROAD_CENTRELINE
  0
POLYLINE
  8
TRAIL
 66
     1
 62
     2
  6
DIVIDE2
  0
VERTEX
  8
TRAIL
 10
516306.00
 20
1148501.00
  0
VERTEX
  8
TRAIL
 10
516323.00
 20
1148555.00
  0
VERTEX
  8
TRAIL
 10
516332.00
 20
1148611.00
  0
VERTEX
  8
TRAIL
 10
516333.00
 20
1148638.00
  0
VERTEX
  8
TRAIL
 10
516331.00
 20
1148671.00
  0
VERTEX
  8
TRAIL
 10
516319.00
 20
1148761.00
  0
VERTEX
  8
TRAIL
 10
516286.00
 20
1148826.00
  0
VERTEX
  8
TRAIL
 10
516220.00
 20
1148899.00
  0
VERTEX
  8
TRAIL
 10
516192.00
 20
1148913.00
  0
VERTEX
  8
TRAIL
 10
516169.00
 20
1148921.00
  0
VERTEX
  8
TRAIL
 10
516146.00
 20
1148924.00
  0
VERTEX
  8
TRAIL
 10
515951.00
 20
1148917.00
  0
VERTEX
  8
TRAIL
 10
515799.00
 20
1148923.00
  0
VERTEX
  8
TRAIL
 10
515749.00
 20
1148921.00
  0
VERTEX
  8
TRAIL
 10
515600.00
 20
1148934.00
  0
VERTEX
  8
TRAIL
 10
515516.00
 20
1148937.00
  0
VERTEX
  8
TRAIL
 10
515475.00
 20
1148945.00
  0
VERTEX
  8
TRAIL
 10
515452.00
 20
1148953.00
  0
VERTEX
  8
TRAIL
 10
515349.00
 20
1149000.00
  0
VERTEX
  8
TRAIL
 10
515318.00
 20
1149007.00
  0
VERTEX
  8
TRAIL
 10
515287.00
 20
1149012.00
  0
VERTEX
  8
TRAIL
 10
515265.00
 20
1149012.00
  0
VERTEX
  8
TRAIL
 10
515242.00
 20
1149013.00
  0
VERTEX
  8
TRAIL
 10
515231.00
 20
1149012.00
  0
SEQEND
  8
TRAIL
  0
POLYLINE
  8
ROAD_CENTRELINE
 66
     1
 62
     1
  6
CONTINUOUS
  0
VERTEX
  8
ROAD_CENTRELINE
 10
516195.00
 20
1148532.00
  0
VERTEX
  8
ROAD_CENTRELINE
 10
516199.00
 20
1148533.00
  0
VERTEX
  8
ROAD_CENTRELINE
 10
516209.00
 20
1148533.00
  0
VERTEX
  8
ROAD_CENTRELINE
 10
516224.00
 20
1148533.00
  0
VERTEX
  8
ROAD_CENTRELINE
 10
516290.00
 20
1148513.00
  0
VERTEX
  8
ROAD_CENTRELINE
 10
516300.00
 20
1148507.00
  0
VERTEX
  8
ROAD_CENTRELINE
 10
516306.00
 20
1148501.00
  0
SEQEND
  8
ROAD_CENTRELINE
  0
POLYLINE
  8
TRAIL
 66
     1
 62
     2
  6
DIVIDE2
  0
VERTEX
  8
TRAIL
 10
512271.00
 20
1148491.00
  0
VERTEX
  8
TRAIL
 10
512267.00
 20
1148516.00
  0
VERTEX
  8
TRAIL
 10
512266.00
 20
1148547.00
  0
VERTEX
  8
TRAIL
 10
512271.00
 20
1148558.00
  0
VERTEX
  8
TRAIL
 10
512282.00
 20
1148575.00
  0
SEQEND
  8
TRAIL
  0
POLYLINE
  8
TRAIL
 66
     1
 62
     2
  6
DIVIDE2
  0
VERTEX
  8
TRAIL
 10
512271.00
 20
1148491.00
  0
VERTEX
  8
TRAIL
 10
512245.00
 20
1148531.00
  0
VERTEX
  8
TRAIL
 10
512232.00
 20
1148547.00
  0
VERTEX
  8
TRAIL
 10
512229.00
 20
1148556.00
  0
VERTEX
  8
TRAIL
 10
512234.00
 20
1148568.00
  0
VERTEX
  8
TRAIL
 10
512247.00
 20
1148575.00
  0
VERTEX
  8
TRAIL
 10
512264.00
 20
1148579.00
  0
VERTEX
  8
TRAIL
 10
512282.00
 20
1148575.00
  0
SEQEND
  8
TRAIL
  0
POLYLINE
  8
ROAD_CENTRELINE
 66
     1
 62
     1
  6
CONTINUOUS
  0
VERTEX
  8
ROAD_CENTRELINE
 10
512451.00
 20
1148522.00
  0
VERTEX
  8
ROAD_CENTRELINE
 10
512412.00
 20
1148486.00
  0
VERTEX
  8
ROAD_CENTRELINE
 10
512392.00
 20
1148468.00
  0
SEQEND
  8
ROAD_CENTRELINE
  0
POLYLINE
  8
ROAD_CENTRELINE
 66
     1
 62
     1
  6
CONTINUOUS
  0
VERTEX
  8
ROAD_CENTRELINE
 10
511506.00
 20
1148516.00
  0
VERTEX
  8
ROAD_CENTRELINE
 10
511507.00
 20
1148444.00
  0
SEQEND
  8
ROAD_CENTRELINE
  0
POLYLINE
  8
ROAD_CENTRELINE
 66
     1
 62
     1
  6
CONTINUOUS
  0
VERTEX
  8
ROAD_CENTRELINE
 10
511710.00
 20
1148554.00
  0
VERTEX
  8
ROAD_CENTRELINE
 10
511645.00
 20
1148555.00
  0
VERTEX
  8
ROAD_CENTRELINE
 10
511614.00
 20
1148555.00
  0
VERTEX
  8
ROAD_CENTRELINE
 10
511610.00
 20
1148554.00
  0
VERTEX
  8
ROAD_CENTRELINE
 10
511604.00
 20
1148550.00
  0
VERTEX
  8
ROAD_CENTRELINE
 10
511599.00
 20
1148543.00
  0
VERTEX
  8
ROAD_CENTRELINE
 10
511599.00
 20
1148530.00
  0
VERTEX
  8
ROAD_CENTRELINE
 10
511600.00
 20
1148490.00
  0
VERTEX
  8
ROAD_CENTRELINE
 10
511604.00
 20
1148443.00
  0
SEQEND
  8
ROAD_CENTRELINE
  0
POLYLINE
  8
ROAD_CENTRELINE
 66
     1
 62
     1
  6
CONTINUOUS
  0
VERTEX
  8
ROAD_CENTRELINE
 10
511507.00
 20
1148444.00
  0
VERTEX
  8
ROAD_CENTRELINE
 10
511604.00
 20
1148443.00
  0
SEQEND
  8
ROAD_CENTRELINE
  0
POLYLINE
  8
ROAD_CENTRELINE
 66
     1
 62
     1
  6
CONTINUOUS
  0
VERTEX
  8
ROAD_CENTRELINE
 10
511710.00
 20
1148554.00
  0
VERTEX
  8
ROAD_CENTRELINE
 10
511708.00
 20
1148442.00
  0
SEQEND
  8
ROAD_CENTRELINE
  0
POLYLINE
  8
ROAD_CENTRELINE
 66
     1
 62
     1
  6
CONTINUOUS
  0
VERTEX
  8
ROAD_CENTRELINE
 10
511604.00
 20
1148443.00
  0
VERTEX
  8
ROAD_CENTRELINE
 10
511649.00
 20
1148443.00
  0
VERTEX
  8
ROAD_CENTRELINE
 10
511708.00
 20
1148442.00
  0
SEQEND
  8
ROAD_CENTRELINE
  0
POLYLINE
  8
ROAD_CENTRELINE
 66
     1
 62
     1
  6
CONTINUOUS
  0
VERTEX
  8
ROAD_CENTRELINE
 10
511822.00
 20
1148555.00
  0
VERTEX
  8
ROAD_CENTRELINE
 10
511821.00
 20
1148441.00
  0
SEQEND
  8
ROAD_CENTRELINE
  0
POLYLINE
  8
ROAD_CENTRELINE
 66
     1
 62
     1
  6
CONTINUOUS
  0
VERTEX
  8
ROAD_CENTRELINE
 10
511708.00
 20
1148442.00
  0
VERTEX
  8
ROAD_CENTRELINE
 10
511821.00
 20
1148441.00
  0
SEQEND
  8
ROAD_CENTRELINE
  0
POLYLINE
  8
ROAD_CENTRELINE
 66
     1
 62
     1
  6
CONTINUOUS
  0
VERTEX
  8
ROAD_CENTRELINE
 10
512392.00
 20
1148468.00
  0
VERTEX
  8
ROAD_CENTRELINE
 10
512365.00
 20
1148441.00
  0
SEQEND
  8
ROAD_CENTRELINE
  0
POLYLINE
  8
ROAD_CENTRELINE
 66
     1
 62
     1
  6
CONTINUOUS
  0
VERTEX
  8
ROAD_CENTRELINE
 10
511927.00
 20
1148554.00
  0
VERTEX
  8
ROAD_CENTRELINE
 10
511926.00
 20
1148470.00
  0
VERTEX
  8
ROAD_CENTRELINE
 10
511925.00
 20
1148439.00
  0
SEQEND
  8
ROAD_CENTRELINE
  0
POLYLINE
  8
ROAD_CENTRELINE
 66
     1
 62
     1
  6
CONTINUOUS
  0
VERTEX
  8
ROAD_CENTRELINE
 10
511821.00
 20
1148441.00
  0
VERTEX
  8
ROAD_CENTRELINE
 10
511840.00
 20
1148441.00
  0
VERTEX
  8
ROAD_CENTRELINE
 10
511925.00
 20
1148439.00
  0
SEQEND
  8
ROAD_CENTRELINE
  0
POLYLINE
  8
ROAD_CENTRELINE
 66
     1
 62
     1
  6
CONTINUOUS
  0
VERTEX
  8
ROAD_CENTRELINE
 10
511925.00
 20
1148439.00
  0
VERTEX
  8
ROAD_CENTRELINE
 10
511971.00
 20
1148438.00
  0
SEQEND
  8
ROAD_CENTRELINE
  0
POLYLINE
  8
TRAIL
 66
     1
 62
     2
  6
DIVIDE2
  0
VERTEX
  8
TRAIL
 10
512365.00
 20
1148441.00
  0
VERTEX
  8
TRAIL
 10
512346.00
 20
1148430.00
  0
VERTEX
  8
TRAIL
 10
512326.00
 20
1148436.00
  0
VERTEX
  8
TRAIL
 10
512304.00
 20
1148450.00
  0
VERTEX
  8
TRAIL
 10
512277.00
 20
1148483.00
  0
VERTEX
  8
TRAIL
 10
512271.00
 20
1148491.00
  0
SEQEND
  8
TRAIL
  0
POLYLINE
  8
ROAD_CENTRELINE
 66
     1
 62
     1
  6
CONTINUOUS
  0
VERTEX
  8
ROAD_CENTRELINE
 10
512392.00
 20
1148468.00
  0
VERTEX
  8
ROAD_CENTRELINE
 10
512454.00
 20
1148395.00
  0
SEQEND
  8
ROAD_CENTRELINE
  0
POLYLINE
  8
ROAD_CENTRELINE
 66
     1
 62
     1
  6
CONTINUOUS
  0
VERTEX
  8
ROAD_CENTRELINE
 10
512454.00
 20
1148395.00
  0
VERTEX
  8
ROAD_CENTRELINE
 10
512472.00
 20
1148375.00
  0
SEQEND
  8
ROAD_CENTRELINE
  0
POLYLINE
  8
ROAD_CENTRELINE
 66
     1
 62
     1
  6
CONTINUOUS
  0
VERTEX
  8
ROAD_CENTRELINE
 10
512454.00
 20
1148395.00
  0
VERTEX
  8
ROAD_CENTRELINE
 10
512381.00
 20
1148340.00
  0
SEQEND
  8
ROAD_CENTRELINE
  0
POLYLINE
  8
ROAD_CENTRELINE
 66
     1
 62
     1
  6
CONTINUOUS
  0
VERTEX
  8
ROAD_CENTRELINE
 10
511604.00
 20
1148443.00
  0
VERTEX
  8
ROAD_CENTRELINE
 10
511604.00
 20
1148438.00
  0
VERTEX
  8
ROAD_CENTRELINE
 10
511606.00
 20
1148387.00
  0
VERTEX
  8
ROAD_CENTRELINE
 10
511603.00
 20
1148325.00
  0
SEQEND
  8
ROAD_CENTRELINE
  0
POLYLINE
  8
ROAD_CENTRELINE
 66
     1
 62
     1
  6
CONTINUOUS
  0
VERTEX
  8
ROAD_CENTRELINE
 10
511708.00
 20
1148442.00
  0
VERTEX
  8
ROAD_CENTRELINE
 10
511707.00
 20
1148373.00
  0
VERTEX
  8
ROAD_CENTRELINE
 10
511707.00
 20
1148325.00
  0
SEQEND
  8
ROAD_CENTRELINE
  0
POLYLINE
  8
ROAD_CENTRELINE
 66
     1
 62
     1
  6
CONTINUOUS
  0
VERTEX
  8
ROAD_CENTRELINE
 10
511603.00
 20
1148325.00
  0
VERTEX
  8
ROAD_CENTRELINE
 10
511707.00
 20
1148325.00
  0
SEQEND
  8
ROAD_CENTRELINE
  0
POLYLINE
  8
ROAD_CENTRELINE
 66
     1
 62
     1
  6
CONTINUOUS
  0
VERTEX
  8
ROAD_CENTRELINE
 10
511821.00
 20
1148441.00
  0
VERTEX
  8
ROAD_CENTRELINE
 10
511820.00
 20
1148360.00
  0
VERTEX
  8
ROAD_CENTRELINE
 10
511820.00
 20
1148325.00
  0
SEQEND
  8
ROAD_CENTRELINE
  0
POLYLINE
  8
ROAD_CENTRELINE
 66
     1
 62
     1
  6
CONTINUOUS
  0
VERTEX
  8
ROAD_CENTRELINE
 10
511707.00
 20
1148325.00
  0
VERTEX
  8
ROAD_CENTRELINE
 10
511765.00
 20
1148325.00
  0
VERTEX
  8
ROAD_CENTRELINE
 10
511820.00
 20
1148325.00
  0
SEQEND
  8
ROAD_CENTRELINE
  0
POLYLINE
  8
ROAD_CENTRELINE
 66
     1
 62
     1
  6
CONTINUOUS
  0
VERTEX
  8
ROAD_CENTRELINE
 10
511925.00
 20
1148439.00
  0
VERTEX
  8
ROAD_CENTRELINE
 10
511924.00
 20
1148328.00
  0
VERTEX
  8
ROAD_CENTRELINE
 10
511923.00
 20
1148324.00
  0
SEQEND
  8
ROAD_CENTRELINE
  0
POLYLINE
  8
ROAD_CENTRELINE
 66
     1
 62
     1
  6
CONTINUOUS
  0
VERTEX
  8
ROAD_CENTRELINE
 10
511820.00
 20
1148325.00
  0
VERTEX
  8
ROAD_CENTRELINE
 10
511908.00
 20
1148324.00
  0
VERTEX
  8
ROAD_CENTRELINE
 10
511923.00
 20
1148324.00
  0
SEQEND
  8
ROAD_CENTRELINE
  0
POLYLINE
  8
ROAD_CENTRELINE
 66
     1
 62
     1
  6
CONTINUOUS
  0
VERTEX
  8
ROAD_CENTRELINE
 10
511923.00
 20
1148324.00
  0
VERTEX
  8
ROAD_CENTRELINE
 10
512077.00
 20
1148321.00
  0
SEQEND
  8
ROAD_CENTRELINE
  0
POLYLINE
  8
ROAD_CENTRELINE
 66
     1
 62
     1
  6
CONTINUOUS
  0
VERTEX
  8
ROAD_CENTRELINE
 10
512381.00
 20
1148340.00
  0
VERTEX
  8
ROAD_CENTRELINE
 10
512347.00
 20
1148314.00
  0
SEQEND
  8
ROAD_CENTRELINE
  0
POLYLINE
  8
ROAD_CENTRELINE
 66
     1
 62
     1
  6
CONTINUOUS
  0
VERTEX
  8
ROAD_CENTRELINE
 10
512472.00
 20
1148375.00
  0
VERTEX
  8
ROAD_CENTRELINE
 10
512518.00
 20
1148422.00
  0
VERTEX
  8
ROAD_CENTRELINE
 10
512538.00
 20
1148434.00
  0
VERTEX
  8
ROAD_CENTRELINE
 10
512548.00
 20
1148435.00
  0
VERTEX
  8
ROAD_CENTRELINE
 10
512566.00
 20
1148431.00
  0
VERTEX
  8
ROAD_CENTRELINE
 10
512577.00
 20
1148423.00
  0
VERTEX
  8
ROAD_CENTRELINE
 10
512622.00
 20
1148359.00
  0
VERTEX
  8
ROAD_CENTRELINE
 10
512622.00
 20
1148347.00
  0
VERTEX
  8
ROAD_CENTRELINE
 10
512620.00
 20
1148339.00
  0
VERTEX
  8
ROAD_CENTRELINE
 10
512613.00
 20
1148327.00
  0
VERTEX
  8
ROAD_CENTRELINE
 10
512589.00
 20
1148301.00
  0
VERTEX
  8
ROAD_CENTRELINE
 10
512557.00
 20
1148279.00
  0
SEQEND
  8
ROAD_CENTRELINE
  0
POLYLINE
  8
ROAD_CENTRELINE
 66
     1
 62
     1
  6
CONTINUOUS
  0
VERTEX
  8
ROAD_CENTRELINE
 10
512472.00
 20
1148375.00
  0
VERTEX
  8
ROAD_CENTRELINE
 10
512494.00
 20
1148349.00
  0
VERTEX
  8
ROAD_CENTRELINE
 10
512557.00
 20
1148279.00
  0
SEQEND
  8
ROAD_CENTRELINE
  0
POLYLINE
  8
ROAD_CENTRELINE
 66
     1
 62
     1
  6
CONTINUOUS
  0
VERTEX
  8
ROAD_CENTRELINE
 10
516306.00
 20
1148501.00
  0
VERTEX
  8
ROAD_CENTRELINE
 10
516310.00
 20
1148497.00
  0
VERTEX
  8
ROAD_CENTRELINE
 10
516316.00
 20
1148482.00
  0
VERTEX
  8
ROAD_CENTRELINE
 10
516325.00
 20
1148428.00
  0
VERTEX
  8
ROAD_CENTRELINE
 10
516342.00
 20
1148339.00
  0
VERTEX
  8
ROAD_CENTRELINE
 10
516365.00
 20
1148277.00
  0
VERTEX
  8
ROAD_CENTRELINE
 10
516377.00
 20
1148247.00
  0
VERTEX
  8
ROAD_CENTRELINE
 10
516380.00
 20
1148238.00
  0
SEQEND
  8
ROAD_CENTRELINE
  0
POLYLINE
  8
RAIL_LINE
 66
     1
 62
     6
  6
CONTINUOUS
  0
VERTEX
  8
RAIL_LINE
 10
514598.00
 20
1148593.00
  0
VERTEX
  8
RAIL_LINE
 10
514720.00
 20
1148704.00
  0
VERTEX
  8
RAIL_LINE
 10
514843.00
 20
1148814.00
  0
VERTEX
  8
RAIL_LINE
 10
514930.00
 20
1148894.00
  0
VERTEX
  8
RAIL_LINE
 10
514983.00
 20
1148944.00
  0
VERTEX
  8
RAIL_LINE
 10
515029.00
 20
1148986.00
  0
VERTEX
  8
RAIL_LINE
 10
515066.00
 20
1149015.00
  0
VERTEX
  8
RAIL_LINE
 10
515132.00
 20
1149070.00
  0
VERTEX
  8
RAIL_LINE
 10
515175.00
 20
1149098.00
  0
VERTEX
  8
RAIL_LINE
 10
515210.00
 20
1149116.00
  0
VERTEX
  8
RAIL_LINE
 10
515237.00
 20
1149128.00
  0
VERTEX
  8
RAIL_LINE
 10
515265.00
 20
1149137.00
  0
VERTEX
  8
RAIL_LINE
 10
515297.00
 20
1149145.00
  0
VERTEX
  8
RAIL_LINE
 10
515330.00
 20
1149151.00
  0
VERTEX
  8
RAIL_LINE
 10
515394.00
 20
1149158.00
  0
VERTEX
  8
RAIL_LINE
 10
515430.00
 20
1149157.00
  0
VERTEX
  8
RAIL_LINE
 10
515454.00
 20
1149152.00
  0
VERTEX
  8
RAIL_LINE
 10
515623.00
 20
1149133.00
  0
VERTEX
  8
RAIL_LINE
 10
515750.00
 20
1149111.00
  0
VERTEX
  8
RAIL_LINE
 10
515842.00
 20
1149102.00
  0
VERTEX
  8
RAIL_LINE
 10
515955.00
 20
1149085.00
  0
VERTEX
  8
RAIL_LINE
 10
516021.00
 20
1149073.00
  0
VERTEX
  8
RAIL_LINE
 10
516073.00
 20
1149056.00
  0
VERTEX
  8
RAIL_LINE
 10
516108.00
 20
1149040.00
  0
VERTEX
  8
RAIL_LINE
 10
516136.00
 20
1149026.00
  0
VERTEX
  8
RAIL_LINE
 10
516166.00
 20
1149007.00
  0
VERTEX
  8
RAIL_LINE
 10
516204.00
 20
1148981.00
  0
VERTEX
  8
RAIL_LINE
 10
516252.00
 20
1148942.00
  0
VERTEX
  8
RAIL_LINE
 10
516278.00
 20
1148904.00
  0
VERTEX
  8
RAIL_LINE
 10
516309.00
 20
1148853.00
  0
VERTEX
  8
RAIL_LINE
 10
516325.00
 20
1148813.00
  0
VERTEX
  8
RAIL_LINE
 10
516334.00
 20
1148779.00
  0
VERTEX
  8
RAIL_LINE
 10
516343.00
 20
1148736.00
  0
VERTEX
  8
RAIL_LINE
 10
516352.00
 20
1148670.00
  0
VERTEX
  8
RAIL_LINE
 10
516353.00
 20
1148607.00
  0
VERTEX
  8
RAIL_LINE
 10
516345.00
 20
1148508.00
  0
VERTEX
  8
RAIL_LINE
 10
516345.00
 20
1148482.00
  0
VERTEX
  8
RAIL_LINE
 10
516348.00
 20
1148456.00
  0
VERTEX
  8
RAIL_LINE
 10
516353.00
 20
1148420.00
  0
VERTEX
  8
RAIL_LINE
 10
516370.00
 20
1148342.00
  0
VERTEX
  8
RAIL_LINE
 10
516378.00
 20
1148311.00
  0
VERTEX
  8
RAIL_LINE
 10
516392.00
 20
1148278.00
  0
VERTEX
  8
RAIL_LINE
 10
516409.00
 20
1148245.00
  0
VERTEX
  8
RAIL_LINE
 10
516414.00
 20
1148237.00
  0
SEQEND
  8
RAIL_LINE
  0
POLYLINE
  8
ROAD_CENTRELINE
 66
     1
 62
     1
  6
CONTINUOUS
  0
VERTEX
  8
ROAD_CENTRELINE
 10
516380.00
 20
1148238.00
  0
VERTEX
  8
ROAD_CENTRELINE
 10
516404.00
 20
1148239.00
  0
VERTEX
  8
ROAD_CENTRELINE
 10
516414.00
 20
1148237.00
  0
SEQEND
  8
ROAD_CENTRELINE
  0
POLYLINE
  8
ACCESSWAY_CENTRELINE
 66
     1
 62
     1
  6
DASHED
  0
VERTEX
  8
ACCESSWAY_CENTRELINE
 10
516723.00
 20
1149015.00
  0
VERTEX
  8
ACCESSWAY_CENTRELINE
 10
516709.00
 20
1148993.00
  0
VERTEX
  8
ACCESSWAY_CENTRELINE
 10
516694.00
 20
1148965.00
  0
VERTEX
  8
ACCESSWAY_CENTRELINE
 10
516678.00
 20
1148929.00
  0
VERTEX
  8
ACCESSWAY_CENTRELINE
 10
516641.00
 20
1148832.00
  0
VERTEX
  8
ACCESSWAY_CENTRELINE
 10
516604.00
 20
1148744.00
  0
VERTEX
  8
ACCESSWAY_CENTRELINE
 10
516569.00
 20
1148647.00
  0
VERTEX
  8
ACCESSWAY_CENTRELINE
 10
516553.00
 20
1148596.00
  0
VERTEX
  8
ACCESSWAY_CENTRELINE
 10
516539.00
 20
1148569.00
  0
VERTEX
  8
ACCESSWAY_CENTRELINE
 10
516503.00
 20
1148523.00
  0
VERTEX
  8
ACCESSWAY_CENTRELINE
 10
516459.00
 20
1148462.00
  0
VERTEX
  8
ACCESSWAY_CENTRELINE
 10
516439.00
 20
1148430.00
  0
VERTEX
  8
ACCESSWAY_CENTRELINE
 10
516430.00
 20
1148403.00
  0
VERTEX
  8
ACCESSWAY_CENTRELINE
 10
516419.00
 20
1148349.00
  0
VERTEX
  8
ACCESSWAY_CENTRELINE
 10
516413.00
 20
1148320.00
  0
VERTEX
  8
ACCESSWAY_CENTRELINE
 10
516414.00
 20
1148310.00
  0
VERTEX
  8
ACCESSWAY_CENTRELINE
 10
516418.00
 20
1148300.00
  0
VERTEX
  8
ACCESSWAY_CENTRELINE
 10
516426.00
 20
1148290.00
  0
VERTEX
  8
ACCESSWAY_CENTRELINE
 10
516435.00
 20
1148274.00
  0
VERTEX
  8
ACCESSWAY_CENTRELINE
 10
516434.00
 20
1148263.00
  0
VERTEX
  8
ACCESSWAY_CENTRELINE
 10
516432.00
 20
1148256.00
  0
VERTEX
  8
ACCESSWAY_CENTRELINE
 10
516429.00
 20
1148232.00
  0
SEQEND
  8
ACCESSWAY_CENTRELINE
  0
POLYLINE
  8
ROAD_CENTRELINE
 66
     1
 62
     1
  6
CONTINUOUS
  0
VERTEX
  8
ROAD_CENTRELINE
 10
516414.00
 20
1148237.00
  0
VERTEX
  8
ROAD_CENTRELINE
 10
516421.00
 20
1148236.00
  0
VERTEX
  8
ROAD_CENTRELINE
 10
516429.00
 20
1148232.00
  0
SEQEND
  8
ROAD_CENTRELINE
  0
POLYLINE
  8
ROAD_CENTRELINE
 66
     1
 62
     1
  6
CONTINUOUS
  0
VERTEX
  8
ROAD_CENTRELINE
 10
511507.00
 20
1148444.00
  0
VERTEX
  8
ROAD_CENTRELINE
 10
511509.00
 20
1148271.00
  0
VERTEX
  8
ROAD_CENTRELINE
 10
511509.00
 20
1148228.00
  0
SEQEND
  8
ROAD_CENTRELINE
  0
POLYLINE
  8
ROAD_CENTRELINE
 66
     1
 62
     1
  6
CONTINUOUS
  0
VERTEX
  8
ROAD_CENTRELINE
 10
511603.00
 20
1148325.00
  0
VERTEX
  8
ROAD_CENTRELINE
 10
511599.00
 20
1148227.00
  0
SEQEND
  8
ROAD_CENTRELINE
  0
POLYLINE
  8
ROAD_CENTRELINE
 66
     1
 62
     1
  6
CONTINUOUS
  0
VERTEX
  8
ROAD_CENTRELINE
 10
511599.00
 20
1148227.00
  0
VERTEX
  8
ROAD_CENTRELINE
 10
511509.00
 20
1148228.00
  0
SEQEND
  8
ROAD_CENTRELINE
  0
POLYLINE
  8
ROAD_CENTRELINE
 66
     1
 62
     1
  6
CONTINUOUS
  0
VERTEX
  8
ROAD_CENTRELINE
 10
511707.00
 20
1148325.00
  0
VERTEX
  8
ROAD_CENTRELINE
 10
511708.00
 20
1148226.00
  0
SEQEND
  8
ROAD_CENTRELINE
  0
POLYLINE
  8
ROAD_CENTRELINE
 66
     1
 62
     1
  6
CONTINUOUS
  0
VERTEX
  8
ROAD_CENTRELINE
 10
511708.00
 20
1148226.00
  0
VERTEX
  8
ROAD_CENTRELINE
 10
511622.00
 20
1148226.00
  0
VERTEX
  8
ROAD_CENTRELINE
 10
511599.00
 20
1148227.00
  0
SEQEND
  8
ROAD_CENTRELINE
  0
POLYLINE
  8
ROAD_CENTRELINE
 66
     1
 62
     1
  6
CONTINUOUS
  0
VERTEX
  8
ROAD_CENTRELINE
 10
511820.00
 20
1148325.00
  0
VERTEX
  8
ROAD_CENTRELINE
 10
511820.00
 20
1148247.00
  0
VERTEX
  8
ROAD_CENTRELINE
 10
511820.00
 20
1148226.00
  0
SEQEND
  8
ROAD_CENTRELINE
  0
POLYLINE
  8
ROAD_CENTRELINE
 66
     1
 62
     1
  6
CONTINUOUS
  0
VERTEX
  8
ROAD_CENTRELINE
 10
511820.00
 20
1148226.00
  0
VERTEX
  8
ROAD_CENTRELINE
 10
511708.00
 20
1148226.00
  0
SEQEND
  8
ROAD_CENTRELINE
  0
POLYLINE
  8
ROAD_CENTRELINE
 66
     1
 62
     1
  6
CONTINUOUS
  0
VERTEX
  8
ROAD_CENTRELINE
 10
511923.00
 20
1148324.00
  0
VERTEX
  8
ROAD_CENTRELINE
 10
511922.00
 20
1148244.00
  0
VERTEX
  8
ROAD_CENTRELINE
 10
511921.00
 20
1148231.00
  0
VERTEX
  8
ROAD_CENTRELINE
 10
511911.00
 20
1148227.00
  0
VERTEX
  8
ROAD_CENTRELINE
 10
511841.00
 20
1148226.00
  0
VERTEX
  8
ROAD_CENTRELINE
 10
511820.00
 20
1148226.00
  0
SEQEND
  8
ROAD_CENTRELINE
  0
POLYLINE
  8
ROAD_CENTRELINE
 66
     1
 62
     1
  6
CONTINUOUS
  0
VERTEX
  8
ROAD_CENTRELINE
 10
515935.00
 20
1148387.00
  0
VERTEX
  8
ROAD_CENTRELINE
 10
515933.00
 20
1148251.00
  0
VERTEX
  8
ROAD_CENTRELINE
 10
515932.00
 20
1148214.00
  0
SEQEND
  8
ROAD_CENTRELINE
  0
POLYLINE
  8
ROAD_CENTRELINE
 66
     1
 62
     1
  6
CONTINUOUS
  0
VERTEX
  8
ROAD_CENTRELINE
 10
515932.00
 20
1148214.00
  0
VERTEX
  8
ROAD_CENTRELINE
 10
515959.00
 20
1148214.00
  0
VERTEX
  8
ROAD_CENTRELINE
 10
516010.00
 20
1148224.00
  0
VERTEX
  8
ROAD_CENTRELINE
 10
516039.00
 20
1148237.00
  0
VERTEX
  8
ROAD_CENTRELINE
 10
516059.00
 20
1148249.00
  0
VERTEX
  8
ROAD_CENTRELINE
 10
516071.00
 20
1148261.00
  0
VERTEX
  8
ROAD_CENTRELINE
 10
516080.00
 20
1148279.00
  0
VERTEX
  8
ROAD_CENTRELINE
 10
516086.00
 20
1148307.00
  0
VERTEX
  8
ROAD_CENTRELINE
 10
516088.00
 20
1148368.00
  0
VERTEX
  8
ROAD_CENTRELINE
 10
516094.00
 20
1148382.00
  0
VERTEX
  8
ROAD_CENTRELINE
 10
516099.00
 20
1148387.00
  0
VERTEX
  8
ROAD_CENTRELINE
 10
516109.00
 20
1148388.00
  0
VERTEX
  8
ROAD_CENTRELINE
 10
516144.00
 20
1148396.00
  0
VERTEX
  8
ROAD_CENTRELINE
 10
516171.00
 20
1148405.00
  0
VERTEX
  8
ROAD_CENTRELINE
 10
516177.00
 20
1148412.00
  0
VERTEX
  8
ROAD_CENTRELINE
 10
516180.00
 20
1148424.00
  0
VERTEX
  8
ROAD_CENTRELINE
 10
516184.00
 20
1148491.00
  0
VERTEX
  8
ROAD_CENTRELINE
 10
516187.00
 20
1148523.00
  0
VERTEX
  8
ROAD_CENTRELINE
 10
516193.00
 20
1148531.00
  0
VERTEX
  8
ROAD_CENTRELINE
 10
516195.00
 20
1148532.00
  0
SEQEND
  8
ROAD_CENTRELINE
  0
POLYLINE
  8
ROAD_CENTRELINE
 66
     1
 62
     1
  6
CONTINUOUS
  0
VERTEX
  8
ROAD_CENTRELINE
 10
516380.00
 20
1148238.00
  0
VERTEX
  8
ROAD_CENTRELINE
 10
516385.00
 20
1148224.00
  0
VERTEX
  8
ROAD_CENTRELINE
 10
516386.00
 20
1148194.00
  0
VERTEX
  8
ROAD_CENTRELINE
 10
516391.00
 20
1148181.00
  0
VERTEX
  8
ROAD_CENTRELINE
 10
516399.00
 20
1148166.00
  0
VERTEX
  8
ROAD_CENTRELINE
 10
516410.00
 20
1148147.00
  0
SEQEND
  8
ROAD_CENTRELINE
  0
POLYLINE
  8
ROAD_CENTRELINE
 66
     1
 62
     1
  6
CONTINUOUS
  0
VERTEX
  8
ROAD_CENTRELINE
 10
516429.00
 20
1148232.00
  0
VERTEX
  8
ROAD_CENTRELINE
 10
516436.00
 20
1148228.00
  0
VERTEX
  8
ROAD_CENTRELINE
 10
516473.00
 20
1148192.00
  0
VERTEX
  8
ROAD_CENTRELINE
 10
516509.00
 20
1148163.00
  0
VERTEX
  8
ROAD_CENTRELINE
 10
516531.00
 20
1148151.00
  0
VERTEX
  8
ROAD_CENTRELINE
 10
516561.00
 20
1148142.00
  0
VERTEX
  8
ROAD_CENTRELINE
 10
516606.00
 20
1148141.00
  0
VERTEX
  8
ROAD_CENTRELINE
 10
516632.00
 20
1148139.00
  0
VERTEX
  8
ROAD_CENTRELINE
 10
516647.00
 20
1148135.00
  0
VERTEX
  8
ROAD_CENTRELINE
 10
516664.00
 20
1148133.00
  0
SEQEND
  8
ROAD_CENTRELINE
  0
POLYLINE
  8
ROAD_CENTRELINE
 66
     1
 62
     1
  6
CONTINUOUS
  0
VERTEX
  8
ROAD_CENTRELINE
 10
511599.00
 20
1148227.00
  0
VERTEX
  8
ROAD_CENTRELINE
 10
511596.00
 20
1148138.00
  0
VERTEX
  8
ROAD_CENTRELINE
 10
511596.00
 20
1148129.00
  0
SEQEND
  8
ROAD_CENTRELINE
  0
POLYLINE
  8
ROAD_CENTRELINE
 66
     1
 62
     1
  6
CONTINUOUS
  0
VERTEX
  8
ROAD_CENTRELINE
 10
511596.00
 20
1148129.00
  0
VERTEX
  8
ROAD_CENTRELINE
 10
511508.00
 20
1148128.00
  0
SEQEND
  8
ROAD_CENTRELINE
  0
POLYLINE
  8
ROAD_CENTRELINE
 66
     1
 62
     1
  6
CONTINUOUS
  0
VERTEX
  8
ROAD_CENTRELINE
 10
511509.00
 20
1148228.00
  0
VERTEX
  8
ROAD_CENTRELINE
 10
511508.00
 20
1148128.00
  0
SEQEND
  8
ROAD_CENTRELINE
  0
POLYLINE
  8
ROAD_CENTRELINE
 66
     1
 62
     1
  6
CONTINUOUS
  0
VERTEX
  8
ROAD_CENTRELINE
 10
511820.00
 20
1148226.00
  0
VERTEX
  8
ROAD_CENTRELINE
 10
511819.00
 20
1148147.00
  0
VERTEX
  8
ROAD_CENTRELINE
 10
511819.00
 20
1148142.00
  0
VERTEX
  8
ROAD_CENTRELINE
 10
511815.00
 20
1148135.00
  0
VERTEX
  8
ROAD_CENTRELINE
 10
511809.00
 20
1148132.00
  0
VERTEX
  8
ROAD_CENTRELINE
 10
511794.00
 20
1148129.00
  0
VERTEX
  8
ROAD_CENTRELINE
 10
511708.00
 20
1148128.00
  0
SEQEND
  8
ROAD_CENTRELINE
  0
POLYLINE
  8
ROAD_CENTRELINE
 66
     1
 62
     1
  6
CONTINUOUS
  0
VERTEX
  8
ROAD_CENTRELINE
 10
511708.00
 20
1148226.00
  0
VERTEX
  8
ROAD_CENTRELINE
 10
511708.00
 20
1148128.00
  0
SEQEND
  8
ROAD_CENTRELINE
  0
POLYLINE
  8
ROAD_CENTRELINE
 66
     1
 62
     1
  6
CONTINUOUS
  0
VERTEX
  8
ROAD_CENTRELINE
 10
511708.00
 20
1148128.00
  0
VERTEX
  8
ROAD_CENTRELINE
 10
511702.00
 20
1148128.00
  0
VERTEX
  8
ROAD_CENTRELINE
 10
511601.00
 20
1148129.00
  0
VERTEX
  8
ROAD_CENTRELINE
 10
511596.00
 20
1148129.00
  0
SEQEND
  8
ROAD_CENTRELINE
  0
POLYLINE
  8
ROAD_CENTRELINE
 66
     1
 62
     1
  6
CONTINUOUS
  0
VERTEX
  8
ROAD_CENTRELINE
 10
512557.00
 20
1148279.00
  0
VERTEX
  8
ROAD_CENTRELINE
 10
512593.00
 20
1148239.00
  0
VERTEX
  8
ROAD_CENTRELINE
 10
512698.00
 20
1148125.00
  0
SEQEND
  8
ROAD_CENTRELINE
  0
POLYLINE
  8
ROAD_CENTRELINE
 66
     1
 62
     1
  6
CONTINUOUS
  0
VERTEX
  8
ROAD_CENTRELINE
 10
511037.00
 20
1148083.00
  0
VERTEX
  8
ROAD_CENTRELINE
 10
511021.00
 20
1148089.00
  0
VERTEX
  8
ROAD_CENTRELINE
 10
510999.00
 20
1148103.00
  0
VERTEX
  8
ROAD_CENTRELINE
 10
510987.00
 20
1148118.00
  0
VERTEX
  8
ROAD_CENTRELINE
 10
510978.00
 20
1148152.00
  0
VERTEX
  8
ROAD_CENTRELINE
 10
510975.00
 20
1148202.00
  0
VERTEX
  8
ROAD_CENTRELINE
 10
510979.00
 20
1148256.00
  0
VERTEX
  8
ROAD_CENTRELINE
 10
510980.00
 20
1148300.00
  0
SEQEND
  8
ROAD_CENTRELINE
  0
POLYLINE
  8
RAIL_LINE
 66
     1
 62
     6
  6
CONTINUOUS
  0
VERTEX
  8
RAIL_LINE
 10
514010.00
 20
1148063.00
  0
VERTEX
  8
RAIL_LINE
 10
514093.00
 20
1148139.00
  0
VERTEX
  8
RAIL_LINE
 10
514215.00
 20
1148250.00
  0
VERTEX
  8
RAIL_LINE
 10
514349.00
 20
1148369.00
  0
VERTEX
  8
RAIL_LINE
 10
514477.00
 20
1148484.00
  0
VERTEX
  8
RAIL_LINE
 10
514588.00
 20
1148584.00
  0
VERTEX
  8
RAIL_LINE
 10
514598.00
 20
1148593.00
  0
SEQEND
  8
RAIL_LINE
  0
POLYLINE
  8
ROAD_CENTRELINE
 66
     1
 62
     1
  6
CONTINUOUS
  0
VERTEX
  8
ROAD_CENTRELINE
 10
512495.00
 20
1148568.00
  0
VERTEX
  8
ROAD_CENTRELINE
 10
512531.00
 20
1148547.00
  0
VERTEX
  8
ROAD_CENTRELINE
 10
512560.00
 20
1148527.00
  0
VERTEX
  8
ROAD_CENTRELINE
 10
512691.00
 20
1148445.00
  0
VERTEX
  8
ROAD_CENTRELINE
 10
512782.00
 20
1148398.00
  0
VERTEX
  8
ROAD_CENTRELINE
 10
512861.00
 20
1148347.00
  0
VERTEX
  8
ROAD_CENTRELINE
 10
512977.00
 20
1148272.00
  0
VERTEX
  8
ROAD_CENTRELINE
 10
513051.00
 20
1148229.00
  0
VERTEX
  8
ROAD_CENTRELINE
 10
513084.00
 20
1148209.00
  0
VERTEX
  8
ROAD_CENTRELINE
 10
513165.00
 20
1148170.00
  0
VERTEX
  8
ROAD_CENTRELINE
 10
513243.00
 20
1148134.00
  0
VERTEX
  8
ROAD_CENTRELINE
 10
513274.00
 20
1148122.00
  0
VERTEX
  8
ROAD_CENTRELINE
 10
513296.00
 20
1148113.00
  0
VERTEX
  8
ROAD_CENTRELINE
 10
513356.00
 20
1148098.00
  0
VERTEX
  8
ROAD_CENTRELINE
 10
513396.00
 20
1148090.00
  0
VERTEX
  8
ROAD_CENTRELINE
 10
513412.00
 20
1148088.00
  0
VERTEX
  8
ROAD_CENTRELINE
 10
513424.00
 20
1148088.00
  0
VERTEX
  8
ROAD_CENTRELINE
 10
513533.00
 20
1148081.00
  0
VERTEX
  8
ROAD_CENTRELINE
 10
513693.00
 20
1148074.00
  0
VERTEX
  8
ROAD_CENTRELINE
 10
513931.00
 20
1148065.00
  0
VERTEX
  8
ROAD_CENTRELINE
 10
514010.00
 20
1148063.00
  0
SEQEND
  8
ROAD_CENTRELINE
  0
POLYLINE
  8
ROAD_CENTRELINE
 66
     1
 62
     1
  6
CONTINUOUS
  0
VERTEX
  8
ROAD_CENTRELINE
 10
511596.00
 20
1148129.00
  0
VERTEX
  8
ROAD_CENTRELINE
 10
511596.00
 20
1148059.00
  0
SEQEND
  8
ROAD_CENTRELINE
  0
POLYLINE
  8
ROAD_CENTRELINE
 66
     1
 62
     1
  6
CONTINUOUS
  0
VERTEX
  8
ROAD_CENTRELINE
 10
514010.00
 20
1148063.00
  0
VERTEX
  8
ROAD_CENTRELINE
 10
514145.00
 20
1148059.00
  0
SEQEND
  8
ROAD_CENTRELINE
  0
POLYLINE
  8
ROAD_CENTRELINE
 66
     1
 62
     1
  6
CONTINUOUS
  0
VERTEX
  8
ROAD_CENTRELINE
 10
511508.00
 20
1148128.00
  0
VERTEX
  8
ROAD_CENTRELINE
 10
511507.00
 20
1148048.00
  0
SEQEND
  8
ROAD_CENTRELINE
  0
POLYLINE
  8
ROAD_CENTRELINE
 66
     1
 62
     1
  6
CONTINUOUS
  0
VERTEX
  8
ROAD_CENTRELINE
 10
511507.00
 20
1148048.00
  0
VERTEX
  8
ROAD_CENTRELINE
 10
511386.00
 20
1148046.00
  0
SEQEND
  8
ROAD_CENTRELINE
  0
POLYLINE
  8
ROAD_CENTRELINE
 66
     1
 62
     1
  6
CONTINUOUS
  0
VERTEX
  8
ROAD_CENTRELINE
 10
511037.00
 20
1148083.00
  0
VERTEX
  8
ROAD_CENTRELINE
 10
511013.00
 20
1148017.00
  0
SEQEND
  8
ROAD_CENTRELINE
  0
POLYLINE
  8
TRAIL
 66
     1
 62
     2
  6
DIVIDE2
  0
VERTEX
  8
TRAIL
 10
512079.00
 20
1148090.00
  0
VERTEX
  8
TRAIL
 10
512114.00
 20
1148068.00
  0
VERTEX
  8
TRAIL
 10
512163.00
 20
1148036.00
  0
VERTEX
  8
TRAIL
 10
512187.00
 20
1148023.00
  0
VERTEX
  8
TRAIL
 10
512209.00
 20
1148015.00
  0
SEQEND
  8
TRAIL
  0
POLYLINE
  8
ROAD_CENTRELINE
 66
     1
 62
     1
  6
CONTINUOUS
  0
VERTEX
  8
ROAD_CENTRELINE
 10
516410.00
 20
1148147.00
  0
VERTEX
  8
ROAD_CENTRELINE
 10
516365.00
 20
1148111.00
  0
VERTEX
  8
ROAD_CENTRELINE
 10
516311.00
 20
1148062.00
  0
VERTEX
  8
ROAD_CENTRELINE
 10
516280.00
 20
1148031.00
  0
VERTEX
  8
ROAD_CENTRELINE
 10
516274.00
 20
1148023.00
  0
VERTEX
  8
ROAD_CENTRELINE
 10
516272.00
 20
1148012.00
  0
VERTEX
  8
ROAD_CENTRELINE
 10
516268.00
 20
1147992.00
  0
SEQEND
  8
ROAD_CENTRELINE
  0
POLYLINE
  8
ROAD_CENTRELINE
 66
     1
 62
     1
  6
CONTINUOUS
  0
VERTEX
  8
ROAD_CENTRELINE
 10
511507.00
 20
1148048.00
  0
VERTEX
  8
ROAD_CENTRELINE
 10
511507.00
 20
1148025.00
  0
VERTEX
  8
ROAD_CENTRELINE
 10
511507.00
 20
1147964.00
  0
SEQEND
  8
ROAD_CENTRELINE
  0
POLYLINE
  8
ROAD_CENTRELINE
 66
     1
 62
     1
  6
CONTINUOUS
  0
VERTEX
  8
ROAD_CENTRELINE
 10
514145.00
 20
1148059.00
  0
VERTEX
  8
ROAD_CENTRELINE
 10
514187.00
 20
1148058.00
  0
VERTEX
  8
ROAD_CENTRELINE
 10
514559.00
 20
1148046.00
  0
VERTEX
  8
ROAD_CENTRELINE
 10
514701.00
 20
1148043.00
  0
VERTEX
  8
ROAD_CENTRELINE
 10
514802.00
 20
1148036.00
  0
VERTEX
  8
ROAD_CENTRELINE
 10
514898.00
 20
1148030.00
  0
VERTEX
  8
ROAD_CENTRELINE
 10
515151.00
 20
1148011.00
  0
VERTEX
  8
ROAD_CENTRELINE
 10
515360.00
 20
1147994.00
  0
VERTEX
  8
ROAD_CENTRELINE
 10
515454.00
 20
1147982.00
  0
VERTEX
  8
ROAD_CENTRELINE
 10
515515.00
 20
1147974.00
  0
VERTEX
  8
ROAD_CENTRELINE
 10
515540.00
 20
1147970.00
  0
VERTEX
  8
ROAD_CENTRELINE
 10
515597.00
 20
1147965.00
  0
VERTEX
  8
ROAD_CENTRELINE
 10
515663.00
 20
1147963.00
  0
VERTEX
  8
ROAD_CENTRELINE
 10
515809.00
 20
1147968.00
  0
VERTEX
  8
ROAD_CENTRELINE
 10
515901.00
 20
1147972.00
  0
SEQEND
  8
ROAD_CENTRELINE
  0
POLYLINE
  8
ROAD_CENTRELINE
 66
     1
 62
     1
  6
CONTINUOUS
  0
VERTEX
  8
ROAD_CENTRELINE
 10
511507.00
 20
1147964.00
  0
VERTEX
  8
ROAD_CENTRELINE
 10
511371.00
 20
1147957.00
  0
SEQEND
  8
ROAD_CENTRELINE
  0
POLYLINE
  8
ROAD_CENTRELINE
 66
     1
 62
     1
  6
CONTINUOUS
  0
VERTEX
  8
ROAD_CENTRELINE
 10
511371.00
 20
1147957.00
  0
VERTEX
  8
ROAD_CENTRELINE
 10
511365.00
 20
1147957.00
  0
VERTEX
  8
ROAD_CENTRELINE
 10
511230.00
 20
1147950.00
  0
SEQEND
  8
ROAD_CENTRELINE
  0
POLYLINE
  8
ROAD_CENTRELINE
 66
     1
 62
     1
  6
CONTINUOUS
  0
VERTEX
  8
ROAD_CENTRELINE
 10
511230.00
 20
1147950.00
  0
VERTEX
  8
ROAD_CENTRELINE
 10
511183.00
 20
1147947.00
  0
VERTEX
  8
ROAD_CENTRELINE
 10
511114.00
 20
1147944.00
  0
SEQEND
  8
ROAD_CENTRELINE
  0
POLYLINE
  8
ROAD_CENTRELINE
 66
     1
 62
     1
  6
CONTINUOUS
  0
VERTEX
  8
ROAD_CENTRELINE
 10
511114.00
 20
1147944.00
  0
VERTEX
  8
ROAD_CENTRELINE
 10
511108.00
 20
1148003.00
  0
VERTEX
  8
ROAD_CENTRELINE
 10
511107.00
 20
1148045.00
  0
VERTEX
  8
ROAD_CENTRELINE
 10
511094.00
 20
1148061.00
  0
VERTEX
  8
ROAD_CENTRELINE
 10
511037.00
 20
1148083.00
  0
SEQEND
  8
ROAD_CENTRELINE
  0
POLYLINE
  8
ROAD_CENTRELINE
 66
     1
 62
     1
  6
CONTINUOUS
  0
VERTEX
  8
ROAD_CENTRELINE
 10
510840.00
 20
1147932.00
  0
VERTEX
  8
ROAD_CENTRELINE
 10
510840.00
 20
1147979.00
  0
SEQEND
  8
ROAD_CENTRELINE
  0
POLYLINE
  8
ROAD_CENTRELINE
 66
     1
 62
     1
  6
CONTINUOUS
  0
VERTEX
  8
ROAD_CENTRELINE
 10
510840.00
 20
1147932.00
  0
VERTEX
  8
ROAD_CENTRELINE
 10
510706.00
 20
1147933.00
  0
SEQEND
  8
ROAD_CENTRELINE
  0
POLYLINE
  8
ROAD_CENTRELINE
 66
     1
 62
     1
  6
CONTINUOUS
  0
VERTEX
  8
ROAD_CENTRELINE
 10
511114.00
 20
1147944.00
  0
VERTEX
  8
ROAD_CENTRELINE
 10
511021.00
 20
1147940.00
  0
VERTEX
  8
ROAD_CENTRELINE
 10
510933.00
 20
1147937.00
  0
VERTEX
  8
ROAD_CENTRELINE
 10
510843.00
 20
1147932.00
  0
VERTEX
  8
ROAD_CENTRELINE
 10
510840.00
 20
1147932.00
  0
SEQEND
  8
ROAD_CENTRELINE
  0
POLYLINE
  8
ROAD_CENTRELINE
 66
     1
 62
     1
  6
CONTINUOUS
  0
VERTEX
  8
ROAD_CENTRELINE
 10
512079.00
 20
1148090.00
  0
VERTEX
  8
ROAD_CENTRELINE
 10
512047.00
 20
1148056.00
  0
VERTEX
  8
ROAD_CENTRELINE
 10
512022.00
 20
1148028.00
  0
VERTEX
  8
ROAD_CENTRELINE
 10
511996.00
 20
1147995.00
  0
VERTEX
  8
ROAD_CENTRELINE
 10
511966.00
 20
1147955.00
  0
VERTEX
  8
ROAD_CENTRELINE
 10
511949.00
 20
1147937.00
  0
VERTEX
  8
ROAD_CENTRELINE
 10
511939.00
 20
1147932.00
  0
VERTEX
  8
ROAD_CENTRELINE
 10
511918.00
 20
1147923.00
  0
VERTEX
  8
ROAD_CENTRELINE
 10
511891.00
 20
1147920.00
  0
VERTEX
  8
ROAD_CENTRELINE
 10
511733.00
 20
1147912.00
  0
VERTEX
  8
ROAD_CENTRELINE
 10
511700.00
 20
1147910.00
  0
SEQEND
  8
ROAD_CENTRELINE
  0
POLYLINE
  8
ROAD_CENTRELINE
 66
     1
 62
     1
  6
CONTINUOUS
  0
VERTEX
  8
ROAD_CENTRELINE
 10
511708.00
 20
1148128.00
  0
VERTEX
  8
ROAD_CENTRELINE
 10
511708.00
 20
1148089.00
  0
VERTEX
  8
ROAD_CENTRELINE
 10
511700.00
 20
1147910.00
  0
SEQEND
  8
ROAD_CENTRELINE
  0
POLYLINE
  8
ROAD_CENTRELINE
 66
     1
 62
     1
  6
CONTINUOUS
  0
VERTEX
  8
ROAD_CENTRELINE
 10
511700.00
 20
1147910.00
  0
VERTEX
  8
ROAD_CENTRELINE
 10
511581.00
 20
1147903.00
  0
VERTEX
  8
ROAD_CENTRELINE
 10
511507.00
 20
1147902.00
  0
SEQEND
  8
ROAD_CENTRELINE
  0
POLYLINE
  8
ROAD_CENTRELINE
 66
     1
 62
     1
  6
CONTINUOUS
  0
VERTEX
  8
ROAD_CENTRELINE
 10
511507.00
 20
1147964.00
  0
VERTEX
  8
ROAD_CENTRELINE
 10
511507.00
 20
1147902.00
  0
SEQEND
  8
ROAD_CENTRELINE
  0
POLYLINE
  8
ROAD_CENTRELINE
 66
     1
 62
     1
  6
CONTINUOUS
  0
VERTEX
  8
ROAD_CENTRELINE
 10
511507.00
 20
1147902.00
  0
VERTEX
  8
ROAD_CENTRELINE
 10
511507.00
 20
1147868.00
  0
SEQEND
  8
ROAD_CENTRELINE
  0
POLYLINE
  8
ROAD_CENTRELINE
 66
     1
 62
     1
  6
CONTINUOUS
  0
VERTEX
  8
ROAD_CENTRELINE
 10
511507.00
 20
1147868.00
  0
VERTEX
  8
ROAD_CENTRELINE
 10
511371.00
 20
1147864.00
  0
SEQEND
  8
ROAD_CENTRELINE
  0
POLYLINE
  8
ROAD_CENTRELINE
 66
     1
 62
     1
  6
CONTINUOUS
  0
VERTEX
  8
ROAD_CENTRELINE
 10
511371.00
 20
1147957.00
  0
VERTEX
  8
ROAD_CENTRELINE
 10
511371.00
 20
1147864.00
  0
SEQEND
  8
ROAD_CENTRELINE
  0
POLYLINE
  8
ROAD_CENTRELINE
 66
     1
 62
     1
  6
CONTINUOUS
  0
VERTEX
  8
ROAD_CENTRELINE
 10
511230.00
 20
1147950.00
  0
VERTEX
  8
ROAD_CENTRELINE
 10
511228.00
 20
1147857.00
  0
SEQEND
  8
ROAD_CENTRELINE
  0
POLYLINE
  8
ROAD_CENTRELINE
 66
     1
 62
     1
  6
CONTINUOUS
  0
VERTEX
  8
ROAD_CENTRELINE
 10
511371.00
 20
1147864.00
  0
VERTEX
  8
ROAD_CENTRELINE
 10
511236.00
 20
1147857.00
  0
VERTEX
  8
ROAD_CENTRELINE
 10
511228.00
 20
1147857.00
  0
SEQEND
  8
ROAD_CENTRELINE
  0
POLYLINE
  8
RAIL_LINE
 66
     1
 62
     6
  6
CONTINUOUS
  0
VERTEX
  8
RAIL_LINE
 10
511507.00
 20
1147850.00
  0
VERTEX
  8
RAIL_LINE
 10
511549.00
 20
1147853.00
  0
VERTEX
  8
RAIL_LINE
 10
511725.00
 20
1147861.00
  0
SEQEND
  8
RAIL_LINE
  0
POLYLINE
  8
ROAD_CENTRELINE
 66
     1
 62
     1
  6
CONTINUOUS
  0
VERTEX
  8
ROAD_CENTRELINE
 10
511507.00
 20
1147868.00
  0
VERTEX
  8
ROAD_CENTRELINE
 10
511507.00
 20
1147850.00
  0
SEQEND
  8
ROAD_CENTRELINE
  0
POLYLINE
  8
ROAD_CENTRELINE
 66
     1
 62
     1
  6
CONTINUOUS
  0
VERTEX
  8
ROAD_CENTRELINE
 10
510841.00
 20
1147841.00
  0
VERTEX
  8
ROAD_CENTRELINE
 10
510840.00
 20
1147932.00
  0
SEQEND
  8
ROAD_CENTRELINE
  0
POLYLINE
  8
ROAD_CENTRELINE
 66
     1
 62
     1
  6
CONTINUOUS
  0
VERTEX
  8
ROAD_CENTRELINE
 10
510841.00
 20
1147841.00
  0
VERTEX
  8
ROAD_CENTRELINE
 10
510785.00
 20
1147842.00
  0
VERTEX
  8
ROAD_CENTRELINE
 10
510674.00
 20
1147841.00
  0
VERTEX
  8
ROAD_CENTRELINE
 10
510521.00
 20
1147856.00
  0
VERTEX
  8
ROAD_CENTRELINE
 10
510508.00
 20
1147856.00
  0
SEQEND
  8
ROAD_CENTRELINE
  0
POLYLINE
  8
ROAD_CENTRELINE
 66
     1
 62
     1
  6
CONTINUOUS
  0
VERTEX
  8
ROAD_CENTRELINE
 10
511228.00
 20
1147857.00
  0
VERTEX
  8
ROAD_CENTRELINE
 10
511041.00
 20
1147842.00
  0
VERTEX
  8
ROAD_CENTRELINE
 10
510972.00
 20
1147841.00
  0
VERTEX
  8
ROAD_CENTRELINE
 10
510892.00
 20
1147839.00
  0
VERTEX
  8
ROAD_CENTRELINE
 10
510841.00
 20
1147841.00
  0
SEQEND
  8
ROAD_CENTRELINE
  0
POLYLINE
  8
RAIL_LINE
 66
     1
 62
     6
  6
CONTINUOUS
  0
VERTEX
  8
RAIL_LINE
 10
511187.00
 20
1147830.00
  0
VERTEX
  8
RAIL_LINE
 10
511337.00
 20
1147838.00
  0
VERTEX
  8
RAIL_LINE
 10
511443.00
 20
1147846.00
  0
VERTEX
  8
RAIL_LINE
 10
511507.00
 20
1147850.00
  0
SEQEND
  8
RAIL_LINE
  0
POLYLINE
  8
TRANSMISSION_LINE_CROSS_COUNTRY
 66
     1
 62
     7
  6
DASHDOT
  0
VERTEX
  8
TRANSMISSION_LINE_CROSS_COUNTRY
 10
510508.00
 20
1147856.00
  0
VERTEX
  8
TRANSMISSION_LINE_CROSS_COUNTRY
 10
510515.00
 20
1147827.00
  0
SEQEND
  8
TRANSMISSION_LINE_CROSS_COUNTRY
  0
POLYLINE
  8
RAIL_LINE_MULTIPLE_TRACK
 66
     1
 62
     6
  6
CENTER2
  0
VERTEX
  8
RAIL_LINE_MULTIPLE_TRACK
 10
510415.00
 20
1147827.00
  0
VERTEX
  8
RAIL_LINE_MULTIPLE_TRACK
 10
510444.00
 20
1147828.00
  0
VERTEX
  8
RAIL_LINE_MULTIPLE_TRACK
 10
510515.00
 20
1147827.00
  0
SEQEND
  8
RAIL_LINE_MULTIPLE_TRACK
  0
POLYLINE
  8
TRANSMISSION_LINE_CROSS_COUNTRY
 66
     1
 62
     7
  6
DASHDOT
  0
VERTEX
  8
TRANSMISSION_LINE_CROSS_COUNTRY
 10
510416.00
 20
1147822.00
  0
VERTEX
  8
TRANSMISSION_LINE_CROSS_COUNTRY
 10
510415.00
 20
1147827.00
  0
SEQEND
  8
TRANSMISSION_LINE_CROSS_COUNTRY
  0
POLYLINE
  8
TRANSMISSION_LINE_CROSS_COUNTRY
 66
     1
 62
     7
  6
DASHDOT
  0
VERTEX
  8
TRANSMISSION_LINE_CROSS_COUNTRY
 10
510515.00
 20
1147827.00
  0
VERTEX
  8
TRANSMISSION_LINE_CROSS_COUNTRY
 10
510517.00
 20
1147815.00
  0
SEQEND
  8
TRANSMISSION_LINE_CROSS_COUNTRY
  0
POLYLINE
  8
RAIL_LINE
 66
     1
 62
     6
  6
CONTINUOUS
  0
VERTEX
  8
RAIL_LINE
 10
510416.00
 20
1147822.00
  0
VERTEX
  8
RAIL_LINE
 10
510432.00
 20
1147821.00
  0
VERTEX
  8
RAIL_LINE
 10
510517.00
 20
1147815.00
  0
SEQEND
  8
RAIL_LINE
  0
POLYLINE
  8
RAIL_LINE_MULTIPLE_TRACK
 66
     1
 62
     6
  6
CENTER2
  0
VERTEX
  8
RAIL_LINE_MULTIPLE_TRACK
 10
510515.00
 20
1147827.00
  0
VERTEX
  8
RAIL_LINE_MULTIPLE_TRACK
 10
510577.00
 20
1147827.00
  0
VERTEX
  8
RAIL_LINE_MULTIPLE_TRACK
 10
510713.00
 20
1147821.00
  0
VERTEX
  8
RAIL_LINE_MULTIPLE_TRACK
 10
510782.00
 20
1147817.00
  0
VERTEX
  8
RAIL_LINE_MULTIPLE_TRACK
 10
510876.00
 20
1147813.00
  0
VERTEX
  8
RAIL_LINE_MULTIPLE_TRACK
 10
510924.00
 20
1147818.00
  0
VERTEX
  8
RAIL_LINE_MULTIPLE_TRACK
 10
510970.00
 20
1147822.00
  0
VERTEX
  8
RAIL_LINE_MULTIPLE_TRACK
 10
511084.00
 20
1147828.00
  0
VERTEX
  8
RAIL_LINE_MULTIPLE_TRACK
 10
511136.00
 20
1147829.00
  0
VERTEX
  8
RAIL_LINE_MULTIPLE_TRACK
 10
511187.00
 20
1147830.00
  0
SEQEND
  8
RAIL_LINE_MULTIPLE_TRACK
  0
POLYLINE
  8
ROAD_CENTRELINE
 66
     1
 62
     1
  6
CONTINUOUS
  0
VERTEX
  8
ROAD_CENTRELINE
 10
511507.00
 20
1147850.00
  0
VERTEX
  8
ROAD_CENTRELINE
 10
511508.00
 20
1147781.00
  0
SEQEND
  8
ROAD_CENTRELINE
  0
POLYLINE
  8
ROAD_CENTRELINE
 66
     1
 62
     1
  6
CONTINUOUS
  0
VERTEX
  8
ROAD_CENTRELINE
 10
511508.00
 20
1147781.00
  0
VERTEX
  8
ROAD_CENTRELINE
 10
511421.00
 20
1147775.00
  0
SEQEND
  8
ROAD_CENTRELINE
  0
POLYLINE
  8
ROAD_CENTRELINE
 66
     1
 62
     1
  6
CONTINUOUS
  0
VERTEX
  8
ROAD_CENTRELINE
 10
511421.00
 20
1147775.00
  0
VERTEX
  8
ROAD_CENTRELINE
 10
511423.00
 20
1147820.00
  0
SEQEND
  8
ROAD_CENTRELINE
  0
POLYLINE
  8
ROAD_CENTRELINE
 66
     1
 62
     1
  6
CONTINUOUS
  0
VERTEX
  8
ROAD_CENTRELINE
 10
511420.00
 20
1147763.00
  0
VERTEX
  8
ROAD_CENTRELINE
 10
511421.00
 20
1147775.00
  0
SEQEND
  8
ROAD_CENTRELINE
  0
POLYLINE
  8
RAIL_LINE
 66
     1
 62
     6
  6
CONTINUOUS
  0
VERTEX
  8
RAIL_LINE
 10
511725.00
 20
1147861.00
  0
VERTEX
  8
RAIL_LINE
 10
511673.00
 20
1147855.00
  0
VERTEX
  8
RAIL_LINE
 10
511618.00
 20
1147827.00
  0
VERTEX
  8
RAIL_LINE
 10
511591.00
 20
1147805.00
  0
VERTEX
  8
RAIL_LINE
 10
511565.00
 20
1147776.00
  0
VERTEX
  8
RAIL_LINE
 10
511549.00
 20
1147746.00
  0
SEQEND
  8
RAIL_LINE
  0
POLYLINE
  8
RAIL_LINE
 66
     1
 62
     6
  6
CONTINUOUS
  0
VERTEX
  8
RAIL_LINE
 10
512846.00
 20
1147829.00
  0
VERTEX
  8
RAIL_LINE
 10
512856.00
 20
1147825.00
  0
VERTEX
  8
RAIL_LINE
 10
512937.00
 20
1147796.00
  0
VERTEX
  8
RAIL_LINE
 10
512988.00
 20
1147775.00
  0
VERTEX
  8
RAIL_LINE
 10
513054.00
 20
1147757.00
  0
VERTEX
  8
RAIL_LINE
 10
513096.00
 20
1147746.00
  0
VERTEX
  8
RAIL_LINE
 10
513133.00
 20
1147741.00
  0
VERTEX
  8
RAIL_LINE
 10
513166.00
 20
1147740.00
  0
VERTEX
  8
RAIL_LINE
 10
513282.00
 20
1147735.00
  0
VERTEX
  8
RAIL_LINE
 10
513371.00
 20
1147729.00
  0
VERTEX
  8
RAIL_LINE
 10
513448.00
 20
1147728.00
  0
VERTEX
  8
RAIL_LINE
 10
513504.00
 20
1147734.00
  0
VERTEX
  8
RAIL_LINE
 10
513556.00
 20
1147741.00
  0
VERTEX
  8
RAIL_LINE
 10
513587.00
 20
1147750.00
  0
VERTEX
  8
RAIL_LINE
 10
513611.00
 20
1147760.00
  0
VERTEX
  8
RAIL_LINE
 10
513661.00
 20
1147787.00
  0
VERTEX
  8
RAIL_LINE
 10
513720.00
 20
1147830.00
  0
VERTEX
  8
RAIL_LINE
 10
513779.00
 20
1147873.00
  0
VERTEX
  8
RAIL_LINE
 10
513894.00
 20
1147964.00
  0
VERTEX
  8
RAIL_LINE
 10
513965.00
 20
1148023.00
  0
VERTEX
  8
RAIL_LINE
 10
514005.00
 20
1148058.00
  0
VERTEX
  8
RAIL_LINE
 10
514010.00
 20
1148063.00
  0
SEQEND
  8
RAIL_LINE
  0
POLYLINE
  8
RAIL_LINE
 66
     1
 62
     6
  6
CONTINUOUS
  0
VERTEX
  8
RAIL_LINE
 10
512846.00
 20
1147829.00
  0
VERTEX
  8
RAIL_LINE
 10
512876.00
 20
1147794.00
  0
VERTEX
  8
RAIL_LINE
 10
512918.00
 20
1147751.00
  0
VERTEX
  8
RAIL_LINE
 10
512955.00
 20
1147719.00
  0
VERTEX
  8
RAIL_LINE
 10
512963.00
 20
1147713.00
  0
SEQEND
  8
RAIL_LINE
  0
POLYLINE
  8
RAIL_LINE
 66
     1
 62
     6
  6
CONTINUOUS
  0
VERTEX
  8
RAIL_LINE
 10
511549.00
 20
1147746.00
  0
VERTEX
  8
RAIL_LINE
 10
511578.00
 20
1147770.00
  0
VERTEX
  8
RAIL_LINE
 10
511604.00
 20
1147784.00
  0
VERTEX
  8
RAIL_LINE
 10
511631.00
 20
1147797.00
  0
VERTEX
  8
RAIL_LINE
 10
511649.00
 20
1147801.00
  0
VERTEX
  8
RAIL_LINE
 10
511662.00
 20
1147803.00
  0
VERTEX
  8
RAIL_LINE
 10
511692.00
 20
1147804.00
  0
VERTEX
  8
RAIL_LINE
 10
511728.00
 20
1147807.00
  0
VERTEX
  8
RAIL_LINE
 10
511776.00
 20
1147811.00
  0
VERTEX
  8
RAIL_LINE
 10
511868.00
 20
1147820.00
  0
VERTEX
  8
RAIL_LINE
 10
512097.00
 20
1147834.00
  0
VERTEX
  8
RAIL_LINE
 10
512277.00
 20
1147844.00
  0
VERTEX
  8
RAIL_LINE
 10
512440.00
 20
1147852.00
  0
VERTEX
  8
RAIL_LINE
 10
512576.00
 20
1147853.00
  0
VERTEX
  8
RAIL_LINE
 10
512669.00
 20
1147844.00
  0
VERTEX
  8
RAIL_LINE
 10
512707.00
 20
1147838.00
  0
VERTEX
  8
RAIL_LINE
 10
512739.00
 20
1147828.00
  0
VERTEX
  8
RAIL_LINE
 10
512816.00
 20
1147794.00
  0
VERTEX
  8
RAIL_LINE
 10
512855.00
 20
1147772.00
  0
VERTEX
  8
RAIL_LINE
 10
512914.00
 20
1147742.00
  0
VERTEX
  8
RAIL_LINE
 10
512963.00
 20
1147713.00
  0
SEQEND
  8
RAIL_LINE
  0
POLYLINE
  8
ROAD_CENTRELINE
 66
     1
 62
     1
  6
CONTINUOUS
  0
VERTEX
  8
ROAD_CENTRELINE
 10
511421.00
 20
1147665.00
  0
VERTEX
  8
ROAD_CENTRELINE
 10
511420.00
 20
1147753.00
  0
VERTEX
  8
ROAD_CENTRELINE
 10
511420.00
 20
1147763.00
  0
SEQEND
  8
ROAD_CENTRELINE
  0
POLYLINE
  8
ROAD_CENTRELINE
 66
     1
 62
     1
  6
CONTINUOUS
  0
VERTEX
  8
ROAD_CENTRELINE
 10
511421.00
 20
1147665.00
  0
VERTEX
  8
ROAD_CENTRELINE
 10
511324.00
 20
1147667.00
  0
VERTEX
  8
ROAD_CENTRELINE
 10
511233.00
 20
1147667.00
  0
SEQEND
  8
ROAD_CENTRELINE
  0
POLYLINE
  8
ROAD_CENTRELINE
 66
     1
 62
     1
  6
CONTINUOUS
  0
VERTEX
  8
ROAD_CENTRELINE
 10
516458.00
 20
1147791.00
  0
VERTEX
  8
ROAD_CENTRELINE
 10
516436.00
 20
1147775.00
  0
VERTEX
  8
ROAD_CENTRELINE
 10
516419.00
 20
1147754.00
  0
VERTEX
  8
ROAD_CENTRELINE
 10
516411.00
 20
1147733.00
  0
VERTEX
  8
ROAD_CENTRELINE
 10
516404.00
 20
1147708.00
  0
VERTEX
  8
ROAD_CENTRELINE
 10
516402.00
 20
1147684.00
  0
VERTEX
  8
ROAD_CENTRELINE
 10
516400.00
 20
1147664.00
  0
VERTEX
  8
ROAD_CENTRELINE
 10
516403.00
 20
1147634.00
  0
VERTEX
  8
ROAD_CENTRELINE
 10
516408.00
 20
1147585.00
  0
VERTEX
  8
ROAD_CENTRELINE
 10
516409.00
 20
1147578.00
  0
SEQEND
  8
ROAD_CENTRELINE
  0
POLYLINE
  8
ROAD_CENTRELINE
 66
     1
 62
     1
  6
CONTINUOUS
  0
VERTEX
  8
ROAD_CENTRELINE
 10
516224.00
 20
1147552.00
  0
VERTEX
  8
ROAD_CENTRELINE
 10
516185.00
 20
1147566.00
  0
SEQEND
  8
ROAD_CENTRELINE
  0
POLYLINE
  8
ROAD_CENTRELINE
 66
     1
 62
     1
  6
CONTINUOUS
  0
VERTEX
  8
ROAD_CENTRELINE
 10
511421.00
 20
1147528.00
  0
VERTEX
  8
ROAD_CENTRELINE
 10
511422.00
 20
1147644.00
  0
VERTEX
  8
ROAD_CENTRELINE
 10
511421.00
 20
1147665.00
  0
SEQEND
  8
ROAD_CENTRELINE
  0
POLYLINE
  8
ROAD_CENTRELINE
 66
     1
 62
     1
  6
CONTINUOUS
  0
VERTEX
  8
ROAD_CENTRELINE
 10
511420.00
 20
1147763.00
  0
VERTEX
  8
ROAD_CENTRELINE
 10
511310.00
 20
1147764.00
  0
VERTEX
  8
ROAD_CENTRELINE
 10
511207.00
 20
1147760.00
  0
VERTEX
  8
ROAD_CENTRELINE
 10
511167.00
 20
1147756.00
  0
VERTEX
  8
ROAD_CENTRELINE
 10
511158.00
 20
1147754.00
  0
VERTEX
  8
ROAD_CENTRELINE
 10
511153.00
 20
1147750.00
  0
VERTEX
  8
ROAD_CENTRELINE
 10
511149.00
 20
1147741.00
  0
VERTEX
  8
ROAD_CENTRELINE
 10
511147.00
 20
1147712.00
  0
VERTEX
  8
ROAD_CENTRELINE
 10
511151.00
 20
1147633.00
  0
VERTEX
  8
ROAD_CENTRELINE
 10
511161.00
 20
1147610.00
  0
VERTEX
  8
ROAD_CENTRELINE
 10
511171.00
 20
1147592.00
  0
VERTEX
  8
ROAD_CENTRELINE
 10
511234.00
 20
1147536.00
  0
VERTEX
  8
ROAD_CENTRELINE
 10
511249.00
 20
1147530.00
  0
VERTEX
  8
ROAD_CENTRELINE
 10
511266.00
 20
1147526.00
  0
VERTEX
  8
ROAD_CENTRELINE
 10
511295.00
 20
1147522.00
  0
VERTEX
  8
ROAD_CENTRELINE
 10
511338.00
 20
1147522.00
  0
SEQEND
  8
ROAD_CENTRELINE
  0
POLYLINE
  8
ROAD_CENTRELINE
 66
     1
 62
     1
  6
CONTINUOUS
  0
VERTEX
  8
ROAD_CENTRELINE
 10
511338.00
 20
1147522.00
  0
VERTEX
  8
ROAD_CENTRELINE
 10
511357.00
 20
1147522.00
  0
VERTEX
  8
ROAD_CENTRELINE
 10
511376.00
 20
1147524.00
  0
VERTEX
  8
ROAD_CENTRELINE
 10
511421.00
 20
1147528.00
  0
SEQEND
  8
ROAD_CENTRELINE
  0
POLYLINE
  8
RAIL_LINE
 66
     1
 62
     6
  6
CONTINUOUS
  0
VERTEX
  8
RAIL_LINE
 10
511187.00
 20
1147830.00
  0
VERTEX
  8
RAIL_LINE
 10
511143.00
 20
1147819.00
  0
VERTEX
  8
RAIL_LINE
 10
511097.00
 20
1147800.00
  0
VERTEX
  8
RAIL_LINE
 10
511068.00
 20
1147782.00
  0
VERTEX
  8
RAIL_LINE
 10
511049.00
 20
1147766.00
  0
VERTEX
  8
RAIL_LINE
 10
511022.00
 20
1147732.00
  0
VERTEX
  8
RAIL_LINE
 10
510980.00
 20
1147675.00
  0
VERTEX
  8
RAIL_LINE
 10
510953.00
 20
1147621.00
  0
VERTEX
  8
RAIL_LINE
 10
510935.00
 20
1147581.00
  0
VERTEX
  8
RAIL_LINE
 10
510908.00
 20
1147521.00
  0
SEQEND
  8
RAIL_LINE
  0
POLYLINE
  8
RAIL_LINE
 66
     1
 62
     6
  6
CONTINUOUS
  0
VERTEX
  8
RAIL_LINE
 10
510517.00
 20
1147815.00
  0
VERTEX
  8
RAIL_LINE
 10
510549.00
 20
1147813.00
  0
VERTEX
  8
RAIL_LINE
 10
510602.00
 20
1147801.00
  0
VERTEX
  8
RAIL_LINE
 10
510647.00
 20
1147789.00
  0
VERTEX
  8
RAIL_LINE
 10
510721.00
 20
1147751.00
  0
VERTEX
  8
RAIL_LINE
 10
510774.00
 20
1147715.00
  0
VERTEX
  8
RAIL_LINE
 10
510799.00
 20
1147692.00
  0
VERTEX
  8
RAIL_LINE
 10
510825.00
 20
1147665.00
  0
VERTEX
  8
RAIL_LINE
 10
510869.00
 20
1147605.00
  0
VERTEX
  8
RAIL_LINE
 10
510896.00
 20
1147550.00
  0
VERTEX
  8
RAIL_LINE
 10
510908.00
 20
1147521.00
  0
SEQEND
  8
RAIL_LINE
  0
POLYLINE
  8
ROAD_CENTRELINE
 66
     1
 62
     1
  6
CONTINUOUS
  0
VERTEX
  8
ROAD_CENTRELINE
 10
516409.00
 20
1147578.00
  0
VERTEX
  8
ROAD_CENTRELINE
 10
516389.00
 20
1147554.00
  0
VERTEX
  8
ROAD_CENTRELINE
 10
516357.00
 20
1147517.00
  0
VERTEX
  8
ROAD_CENTRELINE
 10
516351.00
 20
1147507.00
  0
SEQEND
  8
ROAD_CENTRELINE
  0
POLYLINE
  8
ROAD_CENTRELINE
 66
     1
 62
     1
  6
CONTINUOUS
  0
VERTEX
  8
ROAD_CENTRELINE
 10
516351.00
 20
1147507.00
  0
VERTEX
  8
ROAD_CENTRELINE
 10
516286.00
 20
1147531.00
  0
VERTEX
  8
ROAD_CENTRELINE
 10
516241.00
 20
1147545.00
  0
VERTEX
  8
ROAD_CENTRELINE
 10
516224.00
 20
1147552.00
  0
SEQEND
  8
ROAD_CENTRELINE
  0
POLYLINE
  8
ROAD_EDGE
 66
     1
 62
     9
  6
CONTINUOUS
  0
VERTEX
  8
ROAD_EDGE
 10
516129.00
 20
1147438.00
  0
VERTEX
  8
ROAD_EDGE
 10
516121.00
 20
1147434.00
  0
VERTEX
  8
ROAD_EDGE
 10
516116.00
 20
1147434.00
  0
VERTEX
  8
ROAD_EDGE
 10
516112.00
 20
1147436.00
  0
VERTEX
  8
ROAD_EDGE
 10
516110.00
 20
1147441.00
  0
VERTEX
  8
ROAD_EDGE
 10
516110.00
 20
1147446.00
  0
VERTEX
  8
ROAD_EDGE
 10
516113.00
 20
1147449.00
  0
VERTEX
  8
ROAD_EDGE
 10
516117.00
 20
1147450.00
  0
VERTEX
  8
ROAD_EDGE
 10
516121.00
 20
1147448.00
  0
VERTEX
  8
ROAD_EDGE
 10
516123.00
 20
1147447.00
  0
VERTEX
  8
ROAD_EDGE
 10
516127.00
 20
1147442.00
  0
VERTEX
  8
ROAD_EDGE
 10
516129.00
 20
1147438.00
  0
SEQEND
  8
ROAD_EDGE
  0
POLYLINE
  8
ROAD_CENTRELINE
 66
     1
 62
     1
  6
CONTINUOUS
  0
VERTEX
  8
ROAD_CENTRELINE
 10
511420.00
 20
1147392.00
  0
VERTEX
  8
ROAD_CENTRELINE
 10
511421.00
 20
1147510.00
  0
VERTEX
  8
ROAD_CENTRELINE
 10
511421.00
 20
1147528.00
  0
SEQEND
  8
ROAD_CENTRELINE
  0
POLYLINE
  8
ROAD_CENTRELINE
 66
     1
 62
     1
  6
CONTINUOUS
  0
VERTEX
  8
ROAD_CENTRELINE
 10
511338.00
 20
1147522.00
  0
VERTEX
  8
ROAD_CENTRELINE
 10
511341.00
 20
1147473.00
  0
VERTEX
  8
ROAD_CENTRELINE
 10
511337.00
 20
1147448.00
  0
VERTEX
  8
ROAD_CENTRELINE
 10
511332.00
 20
1147437.00
  0
VERTEX
  8
ROAD_CENTRELINE
 10
511327.00
 20
1147412.00
  0
VERTEX
  8
ROAD_CENTRELINE
 10
511329.00
 20
1147404.00
  0
VERTEX
  8
ROAD_CENTRELINE
 10
511334.00
 20
1147398.00
  0
VERTEX
  8
ROAD_CENTRELINE
 10
511348.00
 20
1147393.00
  0
VERTEX
  8
ROAD_CENTRELINE
 10
511391.00
 20
1147392.00
  0
VERTEX
  8
ROAD_CENTRELINE
 10
511420.00
 20
1147392.00
  0
SEQEND
  8
ROAD_CENTRELINE
  0
POLYLINE
  8
ROAD_CENTRELINE
 66
     1
 62
     1
  6
CONTINUOUS
  0
VERTEX
  8
ROAD_CENTRELINE
 10
511508.00
 20
1147781.00
  0
VERTEX
  8
ROAD_CENTRELINE
 10
511508.00
 20
1147748.00
  0
VERTEX
  8
ROAD_CENTRELINE
 10
511508.00
 20
1147392.00
  0
SEQEND
  8
ROAD_CENTRELINE
  0
POLYLINE
  8
ROAD_CENTRELINE
 66
     1
 62
     1
  6
CONTINUOUS
  0
VERTEX
  8
ROAD_CENTRELINE
 10
511420.00
 20
1147392.00
  0
VERTEX
  8
ROAD_CENTRELINE
 10
511441.00
 20
1147391.00
  0
VERTEX
  8
ROAD_CENTRELINE
 10
511466.00
 20
1147391.00
  0
VERTEX
  8
ROAD_CENTRELINE
 10
511508.00
 20
1147392.00
  0
SEQEND
  8
ROAD_CENTRELINE
  0
POLYLINE
  8
ROAD_CENTRELINE
 66
     1
 62
     1
  6
CONTINUOUS
  0
VERTEX
  8
ROAD_CENTRELINE
 10
516351.00
 20
1147507.00
  0
VERTEX
  8
ROAD_CENTRELINE
 10
516327.00
 20
1147465.00
  0
VERTEX
  8
ROAD_CENTRELINE
 10
516292.00
 20
1147407.00
  0
VERTEX
  8
ROAD_CENTRELINE
 10
516280.00
 20
1147390.00
  0
VERTEX
  8
ROAD_CENTRELINE
 10
516269.00
 20
1147383.00
  0
SEQEND
  8
ROAD_CENTRELINE
  0
POLYLINE
  8
ROAD_CENTRELINE
 66
     1
 62
     1
  6
CONTINUOUS
  0
VERTEX
  8
ROAD_CENTRELINE
 10
516269.00
 20
1147383.00
  0
VERTEX
  8
ROAD_CENTRELINE
 10
516266.00
 20
1147381.00
  0
VERTEX
  8
ROAD_CENTRELINE
 10
516261.00
 20
1147380.00
  0
VERTEX
  8
ROAD_CENTRELINE
 10
516253.00
 20
1147381.00
  0
VERTEX
  8
ROAD_CENTRELINE
 10
516240.00
 20
1147384.00
  0
VERTEX
  8
ROAD_CENTRELINE
 10
516169.00
 20
1147418.00
  0
VERTEX
  8
ROAD_CENTRELINE
 10
516143.00
 20
1147433.00
  0
VERTEX
  8
ROAD_CENTRELINE
 10
516129.00
 20
1147438.00
  0
SEQEND
  8
ROAD_CENTRELINE
  0
POLYLINE
  8
TRANSMISSION_LINE_CROSS_COUNTRY
 66
     1
 62
     7
  6
DASHDOT
  0
VERTEX
  8
TRANSMISSION_LINE_CROSS_COUNTRY
 10
510514.00
 20
1147365.00
  0
VERTEX
  8
TRANSMISSION_LINE_CROSS_COUNTRY
 10
510442.00
 20
1147695.00
  0
VERTEX
  8
TRANSMISSION_LINE_CROSS_COUNTRY
 10
510416.00
 20
1147822.00
  0
SEQEND
  8
TRANSMISSION_LINE_CROSS_COUNTRY
  0
POLYLINE
  8
ROAD_CENTRELINE
 66
     1
 62
     1
  6
CONTINUOUS
  0
VERTEX
  8
ROAD_CENTRELINE
 10
511508.00
 20
1147392.00
  0
VERTEX
  8
ROAD_CENTRELINE
 10
511508.00
 20
1147342.00
  0
VERTEX
  8
ROAD_CENTRELINE
 10
511508.00
 20
1147276.00
  0
SEQEND
  8
ROAD_CENTRELINE
  0
POLYLINE
  8
ROAD_CENTRELINE
 66
     1
 62
     1
  6
CONTINUOUS
  0
VERTEX
  8
ROAD_CENTRELINE
 10
511508.00
 20
1147276.00
  0
VERTEX
  8
ROAD_CENTRELINE
 10
511440.00
 20
1147275.00
  0
VERTEX
  8
ROAD_CENTRELINE
 10
511430.00
 20
1147277.00
  0
VERTEX
  8
ROAD_CENTRELINE
 10
511426.00
 20
1147279.00
  0
VERTEX
  8
ROAD_CENTRELINE
 10
511424.00
 20
1147282.00
  0
VERTEX
  8
ROAD_CENTRELINE
 10
511422.00
 20
1147293.00
  0
VERTEX
  8
ROAD_CENTRELINE
 10
511420.00
 20
1147375.00
  0
VERTEX
  8
ROAD_CENTRELINE
 10
511420.00
 20
1147392.00
  0
SEQEND
  8
ROAD_CENTRELINE
  0
POLYLINE
  8
FEATURE_OUTLINE
 66
     1
 62
     2
  6
CONTINUOUS
  0
VERTEX
  8
FEATURE_OUTLINE
 10
512945.00
 20
1147677.00
  0
VERTEX
  8
FEATURE_OUTLINE
 10
512928.00
 20
1147683.00
  0
VERTEX
  8
FEATURE_OUTLINE
 10
512908.00
 20
1147689.00
  0
VERTEX
  8
FEATURE_OUTLINE
 10
512886.00
 20
1147691.00
  0
VERTEX
  8
FEATURE_OUTLINE
 10
512869.00
 20
1147691.00
  0
VERTEX
  8
FEATURE_OUTLINE
 10
512849.00
 20
1147687.00
  0
VERTEX
  8
FEATURE_OUTLINE
 10
512829.00
 20
1147682.00
  0
VERTEX
  8
FEATURE_OUTLINE
 10
512811.00
 20
1147675.00
  0
VERTEX
  8
FEATURE_OUTLINE
 10
512768.00
 20
1147660.00
  0
VERTEX
  8
FEATURE_OUTLINE
 10
512710.00
 20
1147647.00
  0
VERTEX
  8
FEATURE_OUTLINE
 10
512677.00
 20
1147643.00
  0
VERTEX
  8
FEATURE_OUTLINE
 10
512640.00
 20
1147640.00
  0
VERTEX
  8
FEATURE_OUTLINE
 10
512605.00
 20
1147641.00
  0
VERTEX
  8
FEATURE_OUTLINE
 10
512564.00
 20
1147642.00
  0
VERTEX
  8
FEATURE_OUTLINE
 10
512532.00
 20
1147643.00
  0
VERTEX
  8
FEATURE_OUTLINE
 10
512500.00
 20
1147650.00
  0
VERTEX
  8
FEATURE_OUTLINE
 10
512474.00
 20
1147658.00
  0
VERTEX
  8
FEATURE_OUTLINE
 10
512455.00
 20
1147664.00
  0
VERTEX
  8
FEATURE_OUTLINE
 10
512438.00
 20
1147665.00
  0
VERTEX
  8
FEATURE_OUTLINE
 10
512432.00
 20
1147663.00
  0
VERTEX
  8
FEATURE_OUTLINE
 10
512423.00
 20
1147658.00
  0
VERTEX
  8
FEATURE_OUTLINE
 10
512415.00
 20
1147651.00
  0
VERTEX
  8
FEATURE_OUTLINE
 10
512409.00
 20
1147643.00
  0
VERTEX
  8
FEATURE_OUTLINE
 10
512399.00
 20
1147631.00
  0
VERTEX
  8
FEATURE_OUTLINE
 10
512390.00
 20
1147618.00
  0
VERTEX
  8
FEATURE_OUTLINE
 10
512378.00
 20
1147604.00
  0
VERTEX
  8
FEATURE_OUTLINE
 10
512365.00
 20
1147589.00
  0
VERTEX
  8
FEATURE_OUTLINE
 10
512350.00
 20
1147571.00
  0
VERTEX
  8
FEATURE_OUTLINE
 10
512335.00
 20
1147556.00
  0
VERTEX
  8
FEATURE_OUTLINE
 10
512318.00
 20
1147546.00
  0
VERTEX
  8
FEATURE_OUTLINE
 10
512305.00
 20
1147537.00
  0
VERTEX
  8
FEATURE_OUTLINE
 10
512298.00
 20
1147529.00
  0
VERTEX
  8
FEATURE_OUTLINE
 10
512296.00
 20
1147520.00
  0
VERTEX
  8
FEATURE_OUTLINE
 10
512298.00
 20
1147511.00
  0
VERTEX
  8
FEATURE_OUTLINE
 10
512303.00
 20
1147504.00
  0
VERTEX
  8
FEATURE_OUTLINE
 10
512312.00
 20
1147497.00
  0
VERTEX
  8
FEATURE_OUTLINE
 10
512331.00
 20
1147486.00
  0
VERTEX
  8
FEATURE_OUTLINE
 10
512352.00
 20
1147479.00
  0
VERTEX
  8
FEATURE_OUTLINE
 10
512369.00
 20
1147476.00
  0
VERTEX
  8
FEATURE_OUTLINE
 10
512386.00
 20
1147474.00
  0
VERTEX
  8
FEATURE_OUTLINE
 10
512408.00
 20
1147473.00
  0
VERTEX
  8
FEATURE_OUTLINE
 10
512428.00
 20
1147474.00
  0
VERTEX
  8
FEATURE_OUTLINE
 10
512452.00
 20
1147479.00
  0
VERTEX
  8
FEATURE_OUTLINE
 10
512475.00
 20
1147484.00
  0
VERTEX
  8
FEATURE_OUTLINE
 10
512503.00
 20
1147487.00
  0
VERTEX
  8
FEATURE_OUTLINE
 10
512522.00
 20
1147486.00
  0
VERTEX
  8
FEATURE_OUTLINE
 10
512533.00
 20
1147480.00
  0
VERTEX
  8
FEATURE_OUTLINE
 10
512543.00
 20
1147471.00
  0
VERTEX
  8
FEATURE_OUTLINE
 10
512548.00
 20
1147465.00
  0
VERTEX
  8
FEATURE_OUTLINE
 10
512551.00
 20
1147460.00
  0
VERTEX
  8
FEATURE_OUTLINE
 10
512559.00
 20
1147445.00
  0
VERTEX
  8
FEATURE_OUTLINE
 10
512566.00
 20
1147435.00
  0
VERTEX
  8
FEATURE_OUTLINE
 10
512578.00
 20
1147417.00
  0
VERTEX
  8
FEATURE_OUTLINE
 10
512596.00
 20
1147391.00
  0
VERTEX
  8
FEATURE_OUTLINE
 10
512606.00
 20
1147379.00
  0
VERTEX
  8
FEATURE_OUTLINE
 10
512619.00
 20
1147368.00
  0
VERTEX
  8
FEATURE_OUTLINE
 10
512630.00
 20
1147363.00
  0
VERTEX
  8
FEATURE_OUTLINE
 10
512641.00
 20
1147362.00
  0
VERTEX
  8
FEATURE_OUTLINE
 10
512657.00
 20
1147364.00
  0
VERTEX
  8
FEATURE_OUTLINE
 10
512671.00
 20
1147367.00
  0
VERTEX
  8
FEATURE_OUTLINE
 10
512692.00
 20
1147367.00
  0
VERTEX
  8
FEATURE_OUTLINE
 10
512706.00
 20
1147364.00
  0
VERTEX
  8
FEATURE_OUTLINE
 10
512721.00
 20
1147360.00
  0
VERTEX
  8
FEATURE_OUTLINE
 10
512737.00
 20
1147353.00
  0
VERTEX
  8
FEATURE_OUTLINE
 10
512749.00
 20
1147345.00
  0
VERTEX
  8
FEATURE_OUTLINE
 10
512760.00
 20
1147334.00
  0
VERTEX
  8
FEATURE_OUTLINE
 10
512774.00
 20
1147322.00
  0
VERTEX
  8
FEATURE_OUTLINE
 10
512784.00
 20
1147312.00
  0
VERTEX
  8
FEATURE_OUTLINE
 10
512795.00
 20
1147304.00
  0
VERTEX
  8
FEATURE_OUTLINE
 10
512811.00
 20
1147293.00
  0
VERTEX
  8
FEATURE_OUTLINE
 10
512824.00
 20
1147287.00
  0
VERTEX
  8
FEATURE_OUTLINE
 10
512840.00
 20
1147284.00
  0
VERTEX
  8
FEATURE_OUTLINE
 10
512858.00
 20
1147280.00
  0
VERTEX
  8
FEATURE_OUTLINE
 10
512877.00
 20
1147276.00
  0
VERTEX
  8
FEATURE_OUTLINE
 10
512893.00
 20
1147271.00
  0
VERTEX
  8
FEATURE_OUTLINE
 10
512911.00
 20
1147264.00
  0
VERTEX
  8
FEATURE_OUTLINE
 10
512924.00
 20
1147261.00
  0
VERTEX
  8
FEATURE_OUTLINE
 10
512942.00
 20
1147258.00
  0
VERTEX
  8
FEATURE_OUTLINE
 10
512959.00
 20
1147256.00
  0
VERTEX
  8
FEATURE_OUTLINE
 10
512978.00
 20
1147260.00
  0
VERTEX
  8
FEATURE_OUTLINE
 10
512989.00
 20
1147267.00
  0
VERTEX
  8
FEATURE_OUTLINE
 10
513004.00
 20
1147283.00
  0
VERTEX
  8
FEATURE_OUTLINE
 10
513015.00
 20
1147295.00
  0
VERTEX
  8
FEATURE_OUTLINE
 10
513022.00
 20
1147309.00
  0
VERTEX
  8
FEATURE_OUTLINE
 10
513026.00
 20
1147321.00
  0
VERTEX
  8
FEATURE_OUTLINE
 10
513026.00
 20
1147333.00
  0
VERTEX
  8
FEATURE_OUTLINE
 10
513022.00
 20
1147342.00
  0
VERTEX
  8
FEATURE_OUTLINE
 10
513016.00
 20
1147351.00
  0
VERTEX
  8
FEATURE_OUTLINE
 10
513010.00
 20
1147359.00
  0
VERTEX
  8
FEATURE_OUTLINE
 10
513003.00
 20
1147369.00
  0
VERTEX
  8
FEATURE_OUTLINE
 10
512997.00
 20
1147383.00
  0
VERTEX
  8
FEATURE_OUTLINE
 10
512992.00
 20
1147401.00
  0
VERTEX
  8
FEATURE_OUTLINE
 10
512988.00
 20
1147425.00
  0
VERTEX
  8
FEATURE_OUTLINE
 10
512984.00
 20
1147447.00
  0
VERTEX
  8
FEATURE_OUTLINE
 10
512983.00
 20
1147471.00
  0
VERTEX
  8
FEATURE_OUTLINE
 10
512984.00
 20
1147489.00
  0
VERTEX
  8
FEATURE_OUTLINE
 10
512986.00
 20
1147504.00
  0
VERTEX
  8
FEATURE_OUTLINE
 10
512991.00
 20
1147520.00
  0
VERTEX
  8
FEATURE_OUTLINE
 10
512997.00
 20
1147532.00
  0
VERTEX
  8
FEATURE_OUTLINE
 10
513001.00
 20
1147541.00
  0
VERTEX
  8
FEATURE_OUTLINE
 10
513010.00
 20
1147558.00
  0
VERTEX
  8
FEATURE_OUTLINE
 10
513020.00
 20
1147577.00
  0
VERTEX
  8
FEATURE_OUTLINE
 10
513025.00
 20
1147587.00
  0
VERTEX
  8
FEATURE_OUTLINE
 10
513028.00
 20
1147601.00
  0
VERTEX
  8
FEATURE_OUTLINE
 10
513030.00
 20
1147612.00
  0
VERTEX
  8
FEATURE_OUTLINE
 10
513030.00
 20
1147622.00
  0
VERTEX
  8
FEATURE_OUTLINE
 10
513027.00
 20
1147627.00
  0
VERTEX
  8
FEATURE_OUTLINE
 10
513020.00
 20
1147635.00
  0
VERTEX
  8
FEATURE_OUTLINE
 10
513008.00
 20
1147645.00
  0
VERTEX
  8
FEATURE_OUTLINE
 10
512945.00
 20
1147677.00
  0
SEQEND
  8
FEATURE_OUTLINE
  0
POLYLINE
  8
ACCESSWAY_CENTRELINE
 66
     1
 62
     1
  6
DASHED
  0
VERTEX
  8
ACCESSWAY_CENTRELINE
 10
516269.00
 20
1147383.00
  0
VERTEX
  8
ACCESSWAY_CENTRELINE
 10
516247.00
 20
1147319.00
  0
VERTEX
  8
ACCESSWAY_CENTRELINE
 10
516214.00
 20
1147245.00
  0
VERTEX
  8
ACCESSWAY_CENTRELINE
 10
516213.00
 20
1147242.00
  0
SEQEND
  8
ACCESSWAY_CENTRELINE
  0
POLYLINE
  8
ACCESSWAY_CENTRELINE
 66
     1
 62
     1
  6
DASHED
  0
VERTEX
  8
ACCESSWAY_CENTRELINE
 10
516213.00
 20
1147242.00
  0
VERTEX
  8
ACCESSWAY_CENTRELINE
 10
516154.00
 20
1147267.00
  0
VERTEX
  8
ACCESSWAY_CENTRELINE
 10
516111.00
 20
1147283.00
  0
VERTEX
  8
ACCESSWAY_CENTRELINE
 10
516093.00
 20
1147283.00
  0
VERTEX
  8
ACCESSWAY_CENTRELINE
 10
516083.00
 20
1147281.00
  0
VERTEX
  8
ACCESSWAY_CENTRELINE
 10
516073.00
 20
1147277.00
  0
VERTEX
  8
ACCESSWAY_CENTRELINE
 10
516059.00
 20
1147274.00
  0
SEQEND
  8
ACCESSWAY_CENTRELINE
  0
POLYLINE
  8
ROAD_CENTRELINE
 66
     1
 62
     1
  6
CONTINUOUS
  0
VERTEX
  8
ROAD_CENTRELINE
 10
516409.00
 20
1147578.00
  0
VERTEX
  8
ROAD_CENTRELINE
 10
516417.00
 20
1147532.00
  0
VERTEX
  8
ROAD_CENTRELINE
 10
516472.00
 20
1147340.00
  0
VERTEX
  8
ROAD_CENTRELINE
 10
516507.00
 20
1147207.00
  0
SEQEND
  8
ROAD_CENTRELINE
  0
POLYLINE
  8
TRAIL
 66
     1
 62
     2
  6
DIVIDE2
  0
VERTEX
  8
TRAIL
 10
510514.00
 20
1147365.00
  0
VERTEX
  8
TRAIL
 10
510560.00
 20
1147341.00
  0
VERTEX
  8
TRAIL
 10
510577.00
 20
1147326.00
  0
VERTEX
  8
TRAIL
 10
510585.00
 20
1147256.00
  0
VERTEX
  8
TRAIL
 10
510602.00
 20
1147202.00
  0
SEQEND
  8
TRAIL
  0
POLYLINE
  8
TRAIL
 66
     1
 62
     2
  6
DIVIDE2
  0
VERTEX
  8
TRAIL
 10
510602.00
 20
1147202.00
  0
VERTEX
  8
TRAIL
 10
510562.00
 20
1147177.00
  0
VERTEX
  8
TRAIL
 10
510555.00
 20
1147173.00
  0
SEQEND
  8
TRAIL
  0
POLYLINE
  8
TRANSMISSION_LINE_CROSS_COUNTRY
 66
     1
 62
     7
  6
DASHDOT
  0
VERTEX
  8
TRANSMISSION_LINE_CROSS_COUNTRY
 10
510555.00
 20
1147173.00
  0
VERTEX
  8
TRANSMISSION_LINE_CROSS_COUNTRY
 10
510514.00
 20
1147365.00
  0
SEQEND
  8
TRANSMISSION_LINE_CROSS_COUNTRY
  0
POLYLINE
  8
TRAIL
 66
     1
 62
     2
  6
DIVIDE2
  0
VERTEX
  8
TRAIL
 10
510602.00
 20
1147202.00
  0
VERTEX
  8
TRAIL
 10
510627.00
 20
1147151.00
  0
VERTEX
  8
TRAIL
 10
510648.00
 20
1147122.00
  0
SEQEND
  8
TRAIL
  0
POLYLINE
  8
ACCESSWAY_CENTRELINE
 66
     1
 62
     1
  6
DASHED
  0
VERTEX
  8
ACCESSWAY_CENTRELINE
 10
516213.00
 20
1147242.00
  0
VERTEX
  8
ACCESSWAY_CENTRELINE
 10
516192.00
 20
1147183.00
  0
VERTEX
  8
ACCESSWAY_CENTRELINE
 10
516172.00
 20
1147128.00
  0
VERTEX
  8
ACCESSWAY_CENTRELINE
 10
516162.00
 20
1147121.00
  0
VERTEX
  8
ACCESSWAY_CENTRELINE
 10
516153.00
 20
1147120.00
  0
VERTEX
  8
ACCESSWAY_CENTRELINE
 10
516138.00
 20
1147123.00
  0
VERTEX
  8
ACCESSWAY_CENTRELINE
 10
516103.00
 20
1147143.00
  0
VERTEX
  8
ACCESSWAY_CENTRELINE
 10
516069.00
 20
1147159.00
  0
VERTEX
  8
ACCESSWAY_CENTRELINE
 10
516045.00
 20
1147166.00
  0
SEQEND
  8
ACCESSWAY_CENTRELINE
  0
POLYLINE
  8
FEATURE_OUTLINE
 66
     1
 62
     2
  6
CONTINUOUS
  0
VERTEX
  8
FEATURE_OUTLINE
 10
511919.00
 20
1147242.00
  0
VERTEX
  8
FEATURE_OUTLINE
 10
511894.00
 20
1147227.00
  0
VERTEX
  8
FEATURE_OUTLINE
 10
511884.00
 20
1147213.00
  0
VERTEX
  8
FEATURE_OUTLINE
 10
511877.00
 20
1147205.00
  0
VERTEX
  8
FEATURE_OUTLINE
 10
511869.00
 20
1147192.00
  0
VERTEX
  8
FEATURE_OUTLINE
 10
511861.00
 20
1147175.00
  0
VERTEX
  8
FEATURE_OUTLINE
 10
511854.00
 20
1147158.00
  0
VERTEX
  8
FEATURE_OUTLINE
 10
511848.00
 20
1147141.00
  0
VERTEX
  8
FEATURE_OUTLINE
 10
511840.00
 20
1147122.00
  0
VERTEX
  8
FEATURE_OUTLINE
 10
511827.00
 20
1147099.00
  0
VERTEX
  8
FEATURE_OUTLINE
 10
511816.00
 20
1147082.00
  0
VERTEX
  8
FEATURE_OUTLINE
 10
511804.00
 20
1147070.00
  0
VERTEX
  8
FEATURE_OUTLINE
 10
511788.00
 20
1147060.00
  0
VERTEX
  8
FEATURE_OUTLINE
 10
511772.00
 20
1147053.00
  0
VERTEX
  8
FEATURE_OUTLINE
 10
511757.00
 20
1147049.00
  0
VERTEX
  8
FEATURE_OUTLINE
 10
511739.00
 20
1147047.00
  0
VERTEX
  8
FEATURE_OUTLINE
 10
511720.00
 20
1147049.00
  0
VERTEX
  8
FEATURE_OUTLINE
 10
511700.00
 20
1147051.00
  0
VERTEX
  8
FEATURE_OUTLINE
 10
511679.00
 20
1147059.00
  0
VERTEX
  8
FEATURE_OUTLINE
 10
511661.00
 20
1147069.00
  0
VERTEX
  8
FEATURE_OUTLINE
 10
511647.00
 20
1147079.00
  0
VERTEX
  8
FEATURE_OUTLINE
 10
511633.00
 20
1147090.00
  0
VERTEX
  8
FEATURE_OUTLINE
 10
511626.00
 20
1147101.00
  0
VERTEX
  8
FEATURE_OUTLINE
 10
511620.00
 20
1147116.00
  0
VERTEX
  8
FEATURE_OUTLINE
 10
511616.00
 20
1147131.00
  0
VERTEX
  8
FEATURE_OUTLINE
 10
511615.00
 20
1147143.00
  0
VERTEX
  8
FEATURE_OUTLINE
 10
511617.00
 20
1147154.00
  0
VERTEX
  8
FEATURE_OUTLINE
 10
511621.00
 20
1147174.00
  0
VERTEX
  8
FEATURE_OUTLINE
 10
511632.00
 20
1147199.00
  0
VERTEX
  8
FEATURE_OUTLINE
 10
511650.00
 20
1147223.00
  0
VERTEX
  8
FEATURE_OUTLINE
 10
511674.00
 20
1147246.00
  0
VERTEX
  8
FEATURE_OUTLINE
 10
511696.00
 20
1147265.00
  0
VERTEX
  8
FEATURE_OUTLINE
 10
511731.00
 20
1147287.00
  0
VERTEX
  8
FEATURE_OUTLINE
 10
511762.00
 20
1147304.00
  0
VERTEX
  8
FEATURE_OUTLINE
 10
511834.00
 20
1147353.00
  0
VERTEX
  8
FEATURE_OUTLINE
 10
511865.00
 20
1147375.00
  0
VERTEX
  8
FEATURE_OUTLINE
 10
511895.00
 20
1147391.00
  0
VERTEX
  8
FEATURE_OUTLINE
 10
511932.00
 20
1147408.00
  0
VERTEX
  8
FEATURE_OUTLINE
 10
511962.00
 20
1147424.00
  0
VERTEX
  8
FEATURE_OUTLINE
 10
511998.00
 20
1147437.00
  0
VERTEX
  8
FEATURE_OUTLINE
 10
512012.00
 20
1147442.00
  0
VERTEX
  8
FEATURE_OUTLINE
 10
512032.00
 20
1147451.00
  0
VERTEX
  8
FEATURE_OUTLINE
 10
512054.00
 20
1147460.00
  0
VERTEX
  8
FEATURE_OUTLINE
 10
512075.00
 20
1147470.00
  0
VERTEX
  8
FEATURE_OUTLINE
 10
512098.00
 20
1147474.00
  0
VERTEX
  8
FEATURE_OUTLINE
 10
512126.00
 20
1147476.00
  0
VERTEX
  8
FEATURE_OUTLINE
 10
512146.00
 20
1147478.00
  0
VERTEX
  8
FEATURE_OUTLINE
 10
512161.00
 20
1147482.00
  0
VERTEX
  8
FEATURE_OUTLINE
 10
512185.00
 20
1147491.00
  0
VERTEX
  8
FEATURE_OUTLINE
 10
512205.00
 20
1147498.00
  0
VERTEX
  8
FEATURE_OUTLINE
 10
512225.00
 20
1147501.00
  0
VERTEX
  8
FEATURE_OUTLINE
 10
512245.00
 20
1147499.00
  0
VERTEX
  8
FEATURE_OUTLINE
 10
512263.00
 20
1147492.00
  0
VERTEX
  8
FEATURE_OUTLINE
 10
512276.00
 20
1147482.00
  0
VERTEX
  8
FEATURE_OUTLINE
 10
512284.00
 20
1147470.00
  0
VERTEX
  8
FEATURE_OUTLINE
 10
512286.00
 20
1147451.00
  0
VERTEX
  8
FEATURE_OUTLINE
 10
512281.00
 20
1147433.00
  0
VERTEX
  8
FEATURE_OUTLINE
 10
512270.00
 20
1147416.00
  0
VERTEX
  8
FEATURE_OUTLINE
 10
512256.00
 20
1147399.00
  0
VERTEX
  8
FEATURE_OUTLINE
 10
512240.00
 20
1147381.00
  0
VERTEX
  8
FEATURE_OUTLINE
 10
512224.00
 20
1147363.00
  0
VERTEX
  8
FEATURE_OUTLINE
 10
512208.00
 20
1147347.00
  0
VERTEX
  8
FEATURE_OUTLINE
 10
512193.00
 20
1147337.00
  0
VERTEX
  8
FEATURE_OUTLINE
 10
512174.00
 20
1147333.00
  0
VERTEX
  8
FEATURE_OUTLINE
 10
512150.00
 20
1147328.00
  0
VERTEX
  8
FEATURE_OUTLINE
 10
512131.00
 20
1147320.00
  0
VERTEX
  8
FEATURE_OUTLINE
 10
512116.00
 20
1147308.00
  0
VERTEX
  8
FEATURE_OUTLINE
 10
512105.00
 20
1147298.00
  0
VERTEX
  8
FEATURE_OUTLINE
 10
512091.00
 20
1147288.00
  0
VERTEX
  8
FEATURE_OUTLINE
 10
512075.00
 20
1147279.00
  0
VERTEX
  8
FEATURE_OUTLINE
 10
512059.00
 20
1147275.00
  0
VERTEX
  8
FEATURE_OUTLINE
 10
512043.00
 20
1147271.00
  0
VERTEX
  8
FEATURE_OUTLINE
 10
512025.00
 20
1147268.00
  0
VERTEX
  8
FEATURE_OUTLINE
 10
512011.00
 20
1147267.00
  0
VERTEX
  8
FEATURE_OUTLINE
 10
511991.00
 20
1147266.00
  0
VERTEX
  8
FEATURE_OUTLINE
 10
511974.00
 20
1147266.00
  0
VERTEX
  8
FEATURE_OUTLINE
 10
511958.00
 20
1147266.00
  0
VERTEX
  8
FEATURE_OUTLINE
 10
511950.00
 20
1147261.00
  0
VERTEX
  8
FEATURE_OUTLINE
 10
511919.00
 20
1147242.00
  0
SEQEND
  8
FEATURE_OUTLINE
  0
POLYLINE
  8
ROAD_CENTRELINE
 66
     1
 62
     1
  6
CONTINUOUS
  0
VERTEX
  8
ROAD_CENTRELINE
 10
516507.00
 20
1147207.00
  0
VERTEX
  8
ROAD_CENTRELINE
 10
516551.00
 20
1147212.00
  0
VERTEX
  8
ROAD_CENTRELINE
 10
516601.00
 20
1147226.00
  0
VERTEX
  8
ROAD_CENTRELINE
 10
516620.00
 20
1147233.00
  0
VERTEX
  8
ROAD_CENTRELINE
 10
516634.00
 20
1147238.00
  0
VERTEX
  8
ROAD_CENTRELINE
 10
516647.00
 20
1147241.00
  0
VERTEX
  8
ROAD_CENTRELINE
 10
516662.00
 20
1147242.00
  0
VERTEX
  8
ROAD_CENTRELINE
 10
516776.00
 20
1147234.00
  0
VERTEX
  8
ROAD_CENTRELINE
 10
516834.00
 20
1147230.00
  0
VERTEX
  8
ROAD_CENTRELINE
 10
516858.00
 20
1147230.00
  0
VERTEX
  8
ROAD_CENTRELINE
 10
516882.00
 20
1147231.00
  0
VERTEX
  8
ROAD_CENTRELINE
 10
516900.00
 20
1147230.00
  0
VERTEX
  8
ROAD_CENTRELINE
 10
516912.00
 20
1147227.00
  0
VERTEX
  8
ROAD_CENTRELINE
 10
516927.00
 20
1147220.00
  0
VERTEX
  8
ROAD_CENTRELINE
 10
516954.00
 20
1147204.00
  0
VERTEX
  8
ROAD_CENTRELINE
 10
516983.00
 20
1147180.00
  0
VERTEX
  8
ROAD_CENTRELINE
 10
516998.00
 20
1147170.00
  0
VERTEX
  8
ROAD_CENTRELINE
 10
517013.00
 20
1147166.00
  0
VERTEX
  8
ROAD_CENTRELINE
 10
517023.00
 20
1147163.00
  0
VERTEX
  8
ROAD_CENTRELINE
 10
517036.00
 20
1147163.00
  0
VERTEX
  8
ROAD_CENTRELINE
 10
517107.00
 20
1147173.00
  0
VERTEX
  8
ROAD_CENTRELINE
 10
517123.00
 20
1147171.00
  0
VERTEX
  8
ROAD_CENTRELINE
 10
517150.00
 20
1147163.00
  0
VERTEX
  8
ROAD_CENTRELINE
 10
517186.00
 20
1147152.00
  0
VERTEX
  8
ROAD_CENTRELINE
 10
517230.00
 20
1147136.00
  0
VERTEX
  8
ROAD_CENTRELINE
 10
517260.00
 20
1147135.00
  0
VERTEX
  8
ROAD_CENTRELINE
 10
517294.00
 20
1147135.00
  0
VERTEX
  8
ROAD_CENTRELINE
 10
517331.00
 20
1147133.00
  0
VERTEX
  8
ROAD_CENTRELINE
 10
517454.00
 20
1147142.00
  0
VERTEX
  8
ROAD_CENTRELINE
 10
517515.00
 20
1147139.00
  0
VERTEX
  8
ROAD_CENTRELINE
 10
517539.00
 20
1147136.00
  0
VERTEX
  8
ROAD_CENTRELINE
 10
517566.00
 20
1147128.00
  0
VERTEX
  8
ROAD_CENTRELINE
 10
517629.00
 20
1147103.00
  0
VERTEX
  8
ROAD_CENTRELINE
 10
517715.00
 20
1147070.00
  0
VERTEX
  8
ROAD_CENTRELINE
 10
517761.00
 20
1147053.00
  0
VERTEX
  8
ROAD_CENTRELINE
 10
517784.00
 20
1147047.00
  0
SEQEND
  8
ROAD_CENTRELINE
  0
POLYLINE
  8
ROAD_CENTRELINE
 66
     1
 62
     1
  6
CONTINUOUS
  0
VERTEX
  8
ROAD_CENTRELINE
 10
511508.00
 20
1147276.00
  0
VERTEX
  8
ROAD_CENTRELINE
 10
511507.00
 20
1147094.00
  0
VERTEX
  8
ROAD_CENTRELINE
 10
511508.00
 20
1147041.00
  0
SEQEND
  8
ROAD_CENTRELINE
  0
POLYLINE
  8
ROAD_CENTRELINE
 66
     1
 62
     1
  6
CONTINUOUS
  0
VERTEX
  8
ROAD_CENTRELINE
 10
511508.00
 20
1147041.00
  0
VERTEX
  8
ROAD_CENTRELINE
 10
511508.00
 20
1147021.00
  0
VERTEX
  8
ROAD_CENTRELINE
 10
511508.00
 20
1146990.00
  0
SEQEND
  8
ROAD_CENTRELINE
  0
POLYLINE
  8
ROAD_CENTRELINE
 66
     1
 62
     1
  6
CONTINUOUS
  0
VERTEX
  8
ROAD_CENTRELINE
 10
511508.00
 20
1146990.00
  0
VERTEX
  8
ROAD_CENTRELINE
 10
511416.00
 20
1146988.00
  0
SEQEND
  8
ROAD_CENTRELINE
  0
POLYLINE
  8
ROAD_CENTRELINE
 66
     1
 62
     1
  6
CONTINUOUS
  0
VERTEX
  8
ROAD_CENTRELINE
 10
511508.00
 20
1147041.00
  0
VERTEX
  8
ROAD_CENTRELINE
 10
511443.00
 20
1147041.00
  0
VERTEX
  8
ROAD_CENTRELINE
 10
511429.00
 20
1147040.00
  0
VERTEX
  8
ROAD_CENTRELINE
 10
511422.00
 20
1147038.00
  0
VERTEX
  8
ROAD_CENTRELINE
 10
511418.00
 20
1147034.00
  0
VERTEX
  8
ROAD_CENTRELINE
 10
511417.00
 20
1147020.00
  0
VERTEX
  8
ROAD_CENTRELINE
 10
511416.00
 20
1146988.00
  0
SEQEND
  8
ROAD_CENTRELINE
  0
POLYLINE
  8
TRAIL
 66
     1
 62
     2
  6
DIVIDE2
  0
VERTEX
  8
TRAIL
 10
518438.00
 20
1146984.00
  0
VERTEX
  8
TRAIL
 10
518462.00
 20
1147037.00
  0
VERTEX
  8
TRAIL
 10
518487.00
 20
1147085.00
  0
VERTEX
  8
TRAIL
 10
518494.00
 20
1147107.00
  0
VERTEX
  8
TRAIL
 10
518495.00
 20
1147123.00
  0
VERTEX
  8
TRAIL
 10
518491.00
 20
1147140.00
  0
VERTEX
  8
TRAIL
 10
518466.00
 20
1147160.00
  0
VERTEX
  8
TRAIL
 10
518434.00
 20
1147167.00
  0
VERTEX
  8
TRAIL
 10
518407.00
 20
1147173.00
  0
VERTEX
  8
TRAIL
 10
518392.00
 20
1147176.00
  0
VERTEX
  8
TRAIL
 10
518387.00
 20
1147179.00
  0
SEQEND
  8
TRAIL
  0
POLYLINE
  8
ROAD_CENTRELINE
 66
     1
 62
     1
  6
CONTINUOUS
  0
VERTEX
  8
ROAD_CENTRELINE
 10
517784.00
 20
1147047.00
  0
VERTEX
  8
ROAD_CENTRELINE
 10
517839.00
 20
1147035.00
  0
VERTEX
  8
ROAD_CENTRELINE
 10
517853.00
 20
1147033.00
  0
VERTEX
  8
ROAD_CENTRELINE
 10
517871.00
 20
1147034.00
  0
VERTEX
  8
ROAD_CENTRELINE
 10
517889.00
 20
1147036.00
  0
VERTEX
  8
ROAD_CENTRELINE
 10
517940.00
 20
1147045.00
  0
VERTEX
  8
ROAD_CENTRELINE
 10
517978.00
 20
1147055.00
  0
VERTEX
  8
ROAD_CENTRELINE
 10
517996.00
 20
1147056.00
  0
VERTEX
  8
ROAD_CENTRELINE
 10
518013.00
 20
1147054.00
  0
VERTEX
  8
ROAD_CENTRELINE
 10
518035.00
 20
1147050.00
  0
VERTEX
  8
ROAD_CENTRELINE
 10
518070.00
 20
1147040.00
  0
VERTEX
  8
ROAD_CENTRELINE
 10
518163.00
 20
1147018.00
  0
VERTEX
  8
ROAD_CENTRELINE
 10
518213.00
 20
1147014.00
  0
VERTEX
  8
ROAD_CENTRELINE
 10
518269.00
 20
1147009.00
  0
VERTEX
  8
ROAD_CENTRELINE
 10
518317.00
 20
1147008.00
  0
VERTEX
  8
ROAD_CENTRELINE
 10
518390.00
 20
1147004.00
  0
VERTEX
  8
ROAD_CENTRELINE
 10
518411.00
 20
1146997.00
  0
VERTEX
  8
ROAD_CENTRELINE
 10
518428.00
 20
1146990.00
  0
VERTEX
  8
ROAD_CENTRELINE
 10
518438.00
 20
1146984.00
  0
SEQEND
  8
ROAD_CENTRELINE
  0
POLYLINE
  8
RAIL_LINE
 66
     1
 62
     6
  6
CONTINUOUS
  0
VERTEX
  8
RAIL_LINE
 10
511549.00
 20
1147746.00
  0
VERTEX
  8
RAIL_LINE
 10
511546.00
 20
1147740.00
  0
VERTEX
  8
RAIL_LINE
 10
511537.00
 20
1147705.00
  0
VERTEX
  8
RAIL_LINE
 10
511532.00
 20
1147668.00
  0
VERTEX
  8
RAIL_LINE
 10
511531.00
 20
1147619.00
  0
VERTEX
  8
RAIL_LINE
 10
511528.00
 20
1147428.00
  0
VERTEX
  8
RAIL_LINE
 10
511523.00
 20
1147234.00
  0
VERTEX
  8
RAIL_LINE
 10
511528.00
 20
1147116.00
  0
VERTEX
  8
RAIL_LINE
 10
511534.00
 20
1147068.00
  0
VERTEX
  8
RAIL_LINE
 10
511538.00
 20
1147047.00
  0
VERTEX
  8
RAIL_LINE
 10
511574.00
 20
1146992.00
  0
VERTEX
  8
RAIL_LINE
 10
511614.00
 20
1146951.00
  0
VERTEX
  8
RAIL_LINE
 10
511638.00
 20
1146936.00
  0
VERTEX
  8
RAIL_LINE
 10
511672.00
 20
1146924.00
  0
VERTEX
  8
RAIL_LINE
 10
511691.00
 20
1146924.00
  0
VERTEX
  8
RAIL_LINE
 10
511706.00
 20
1146926.00
  0
VERTEX
  8
RAIL_LINE
 10
511732.00
 20
1146938.00
  0
VERTEX
  8
RAIL_LINE
 10
511772.00
 20
1146974.00
  0
VERTEX
  8
RAIL_LINE
 10
511796.00
 20
1146997.00
  0
VERTEX
  8
RAIL_LINE
 10
511806.00
 20
1147004.00
  0
SEQEND
  8
RAIL_LINE
  0
POLYLINE
  8
RAIL_LINE
 66
     1
 62
     6
  6
CONTINUOUS
  0
VERTEX
  8
RAIL_LINE
 10
511806.00
 20
1147004.00
  0
VERTEX
  8
RAIL_LINE
 10
511794.00
 20
1146970.00
  0
VERTEX
  8
RAIL_LINE
 10
511775.03
 20
1146916.88
  0
SEQEND
  8
RAIL_LINE
  0
POLYLINE
  8
TRAIL
 66
     1
 62
     2
  6
DIVIDE2
  0
VERTEX
  8
TRAIL
 10
517784.00
 20
1147047.00
  0
VERTEX
  8
TRAIL
 10
517794.00
 20
1147017.00
  0
VERTEX
  8
TRAIL
 10
517825.00
 20
1146977.00
  0
VERTEX
  8
TRAIL
 10
517872.00
 20
1146958.00
  0
VERTEX
  8
TRAIL
 10
517900.00
 20
1146946.00
  0
VERTEX
  8
TRAIL
 10
517916.00
 20
1146932.00
  0
VERTEX
  8
TRAIL
 10
517928.00
 20
1146915.00
  0
VERTEX
  8
TRAIL
 10
517940.00
 20
1146889.00
  0
SEQEND
  8
TRAIL
  0
POLYLINE
  8
ROAD_CENTRELINE
 66
     1
 62
     1
  6
CONTINUOUS
  0
VERTEX
  8
ROAD_CENTRELINE
 10
511416.00
 20
1146988.00
  0
VERTEX
  8
ROAD_CENTRELINE
 10
511415.00
 20
1146986.00
  0
VERTEX
  8
ROAD_CENTRELINE
 10
511412.00
 20
1146975.00
  0
VERTEX
  8
ROAD_CENTRELINE
 10
511399.00
 20
1146944.00
  0
VERTEX
  8
ROAD_CENTRELINE
 10
511366.00
 20
1146856.00
  0
VERTEX
  8
ROAD_CENTRELINE
 10
511365.00
 20
1146853.00
  0
SEQEND
  8
ROAD_CENTRELINE
  0
POLYLINE
  8
ROAD_CENTRELINE
 66
     1
 62
     1
  6
CONTINUOUS
  0
VERTEX
  8
ROAD_CENTRELINE
 10
511365.00
 20
1146853.00
  0
VERTEX
  8
ROAD_CENTRELINE
 10
511362.00
 20
1146854.00
  0
VERTEX
  8
ROAD_CENTRELINE
 10
511343.00
 20
1146859.00
  0
VERTEX
  8
ROAD_CENTRELINE
 10
511334.00
 20
1146859.00
  0
VERTEX
  8
ROAD_CENTRELINE
 10
511289.00
 20
1146854.00
  0
VERTEX
  8
ROAD_CENTRELINE
 10
511263.00
 20
1146855.00
  0
SEQEND
  8
ROAD_CENTRELINE
  0
POLYLINE
  8
RAIL_LINE
 66
     1
 62
     6
  6
CONTINUOUS
  0
VERTEX
  8
RAIL_LINE
 10
510908.00
 20
1147521.00
  0
VERTEX
  8
RAIL_LINE
 10
510912.00
 20
1147511.00
  0
VERTEX
  8
RAIL_LINE
 10
510921.00
 20
1147445.00
  0
VERTEX
  8
RAIL_LINE
 10
510921.00
 20
1147387.00
  0
VERTEX
  8
RAIL_LINE
 10
510917.00
 20
1147346.00
  0
VERTEX
  8
RAIL_LINE
 10
510909.00
 20
1147302.00
  0
VERTEX
  8
RAIL_LINE
 10
510881.00
 20
1147201.00
  0
VERTEX
  8
RAIL_LINE
 10
510843.00
 20
1147107.00
  0
VERTEX
  8
RAIL_LINE
 10
510789.00
 20
1146974.00
  0
VERTEX
  8
RAIL_LINE
 10
510748.00
 20
1146868.00
  0
VERTEX
  8
RAIL_LINE
 10
510735.00
 20
1146838.00
  0
SEQEND
  8
RAIL_LINE
  0
POLYLINE
  8
TRANSMISSION_LINE_CROSS_COUNTRY
 66
     1
 62
     7
  6
DASHDOT
  0
VERTEX
  8
TRANSMISSION_LINE_CROSS_COUNTRY
 10
510517.00
 20
1147815.00
  0
VERTEX
  8
TRANSMISSION_LINE_CROSS_COUNTRY
 10
510538.00
 20
1147721.00
  0
VERTEX
  8
TRANSMISSION_LINE_CROSS_COUNTRY
 10
510696.00
 20
1147015.00
  0
VERTEX
  8
TRANSMISSION_LINE_CROSS_COUNTRY
 10
510735.00
 20
1146838.00
  0
SEQEND
  8
TRANSMISSION_LINE_CROSS_COUNTRY
  0
POLYLINE
  8
ROAD_CENTRELINE
 66
     1
 62
     1
  6
CONTINUOUS
  0
VERTEX
  8
ROAD_CENTRELINE
 10
511442.00
 20
1146823.00
  0
VERTEX
  8
ROAD_CENTRELINE
 10
511440.00
 20
1146823.00
  0
VERTEX
  8
ROAD_CENTRELINE
 10
511410.00
 20
1146831.00
  0
VERTEX
  8
ROAD_CENTRELINE
 10
511365.00
 20
1146853.00
  0
SEQEND
  8
ROAD_CENTRELINE
  0
POLYLINE
  8
ROAD_CENTRELINE
 66
     1
 62
     1
  6
CONTINUOUS
  0
VERTEX
  8
ROAD_CENTRELINE
 10
511508.00
 20
1146990.00
  0
VERTEX
  8
ROAD_CENTRELINE
 10
511508.00
 20
1146980.00
  0
VERTEX
  8
ROAD_CENTRELINE
 10
511507.00
 20
1146963.00
  0
VERTEX
  8
ROAD_CENTRELINE
 10
511506.00
 20
1146945.00
  0
VERTEX
  8
ROAD_CENTRELINE
 10
511506.00
 20
1146933.00
  0
VERTEX
  8
ROAD_CENTRELINE
 10
511504.00
 20
1146925.00
  0
VERTEX
  8
ROAD_CENTRELINE
 10
511500.00
 20
1146916.00
  0
VERTEX
  8
ROAD_CENTRELINE
 10
511477.00
 20
1146887.00
  0
VERTEX
  8
ROAD_CENTRELINE
 10
511468.00
 20
1146871.00
  0
VERTEX
  8
ROAD_CENTRELINE
 10
511459.00
 20
1146851.00
  0
VERTEX
  8
ROAD_CENTRELINE
 10
511455.00
 20
1146838.00
  0
VERTEX
  8
ROAD_CENTRELINE
 10
511451.00
 20
1146831.00
  0
VERTEX
  8
ROAD_CENTRELINE
 10
511448.00
 20
1146825.00
  0
VERTEX
  8
ROAD_CENTRELINE
 10
511445.00
 20
1146823.00
  0
VERTEX
  8
ROAD_CENTRELINE
 10
511443.00
 20
1146822.00
  0
VERTEX
  8
ROAD_CENTRELINE
 10
511442.00
 20
1146823.00
  0
SEQEND
  8
ROAD_CENTRELINE
  0
POLYLINE
  8
ROAD_CENTRELINE
 66
     1
 62
     1
  6
CONTINUOUS
  0
VERTEX
  8
ROAD_CENTRELINE
 10
511365.00
 20
1146853.00
  0
VERTEX
  8
ROAD_CENTRELINE
 10
511352.00
 20
1146820.00
  0
VERTEX
  8
ROAD_CENTRELINE
 10
511328.00
 20
1146763.00
  0
SEQEND
  8
ROAD_CENTRELINE
  0
POLYLINE
  8
TRAIL
 66
     1
 62
     2
  6
DIVIDE2
  0
VERTEX
  8
TRAIL
 10
511442.00
 20
1146823.00
  0
VERTEX
  8
TRAIL
 10
511416.00
 20
1146773.00
  0
VERTEX
  8
TRAIL
 10
511407.00
 20
1146750.00
  0
SEQEND
  8
TRAIL
  0
POLYLINE
  8
RAIL_LINE
 66
     1
 62
     6
  6
CONTINUOUS
  0
VERTEX
  8
RAIL_LINE
 10
511775.03
 20
1146916.88
  0
VERTEX
  8
RAIL_LINE
 10
511759.00
 20
1146872.00
  0
VERTEX
  8
RAIL_LINE
 10
511744.00
 20
1146787.00
  0
VERTEX
  8
RAIL_LINE
 10
511747.00
 20
1146725.00
  0
VERTEX
  8
RAIL_LINE
 10
511749.00
 20
1146719.00
  0
SEQEND
  8
RAIL_LINE
  0
POLYLINE
  8
RAIL_LINE
 66
     1
 62
     6
  6
CONTINUOUS
  0
VERTEX
  8
RAIL_LINE
 10
510735.00
 20
1146838.00
  0
VERTEX
  8
RAIL_LINE
 10
510669.00
 20
1146680.00
  0
VERTEX
  8
RAIL_LINE
 10
510667.00
 20
1146675.00
  0
SEQEND
  8
RAIL_LINE
  0
POLYLINE
  8
TRANSMISSION_LINE_CROSS_COUNTRY
 66
     1
 62
     7
  6
DASHDOT
  0
VERTEX
  8
TRANSMISSION_LINE_CROSS_COUNTRY
 10
510667.00
 20
1146675.00
  0
VERTEX
  8
TRANSMISSION_LINE_CROSS_COUNTRY
 10
510651.00
 20
1146751.00
  0
VERTEX
  8
TRANSMISSION_LINE_CROSS_COUNTRY
 10
510566.00
 20
1147123.00
  0
VERTEX
  8
TRANSMISSION_LINE_CROSS_COUNTRY
 10
510555.00
 20
1147173.00
  0
SEQEND
  8
TRANSMISSION_LINE_CROSS_COUNTRY
  0
POLYLINE
  8
TRAIL
 66
     1
 62
     2
  6
DIVIDE2
  0
VERTEX
  8
TRAIL
 10
510555.00
 20
1147173.00
  0
VERTEX
  8
TRAIL
 10
510479.00
 20
1147122.00
  0
VERTEX
  8
TRAIL
 10
510431.00
 20
1147084.00
  0
VERTEX
  8
TRAIL
 10
510390.00
 20
1147042.00
  0
VERTEX
  8
TRAIL
 10
510365.00
 20
1147011.00
  0
VERTEX
  8
TRAIL
 10
510328.00
 20
1146944.00
  0
VERTEX
  8
TRAIL
 10
510324.00
 20
1146907.00
  0
VERTEX
  8
TRAIL
 10
510328.00
 20
1146864.00
  0
VERTEX
  8
TRAIL
 10
510323.00
 20
1146847.00
  0
VERTEX
  8
TRAIL
 10
510311.00
 20
1146816.00
  0
VERTEX
  8
TRAIL
 10
510317.00
 20
1146760.00
  0
VERTEX
  8
TRAIL
 10
510328.00
 20
1146698.00
  0
VERTEX
  8
TRAIL
 10
510336.00
 20
1146684.00
  0
VERTEX
  8
TRAIL
 10
510390.00
 20
1146660.00
  0
VERTEX
  8
TRAIL
 10
510456.00
 20
1146662.00
  0
VERTEX
  8
TRAIL
 10
510507.00
 20
1146678.00
  0
VERTEX
  8
TRAIL
 10
510537.00
 20
1146680.00
  0
VERTEX
  8
TRAIL
 10
510566.00
 20
1146680.00
  0
VERTEX
  8
TRAIL
 10
510612.00
 20
1146681.00
  0
VERTEX
  8
TRAIL
 10
510650.00
 20
1146687.00
  0
SEQEND
  8
TRAIL
  0
POLYLINE
  8
FEATURE_OUTLINE
 66
     1
 62
     2
  6
CONTINUOUS
  0
VERTEX
  8
FEATURE_OUTLINE
 10
511775.03
 20
1146916.88
  0
VERTEX
  8
FEATURE_OUTLINE
 10
511774.00
 20
1146920.00
  0
VERTEX
  8
FEATURE_OUTLINE
 10
511765.00
 20
1146923.00
  0
VERTEX
  8
FEATURE_OUTLINE
 10
511749.00
 20
1146923.00
  0
VERTEX
  8
FEATURE_OUTLINE
 10
511735.00
 20
1146920.00
  0
VERTEX
  8
FEATURE_OUTLINE
 10
511720.00
 20
1146917.00
  0
VERTEX
  8
FEATURE_OUTLINE
 10
511705.00
 20
1146914.00
  0
VERTEX
  8
FEATURE_OUTLINE
 10
511680.00
 20
1146913.00
  0
VERTEX
  8
FEATURE_OUTLINE
 10
511663.00
 20
1146914.00
  0
VERTEX
  8
FEATURE_OUTLINE
 10
511647.00
 20
1146911.00
  0
VERTEX
  8
FEATURE_OUTLINE
 10
511637.00
 20
1146904.00
  0
VERTEX
  8
FEATURE_OUTLINE
 10
511627.00
 20
1146890.00
  0
VERTEX
  8
FEATURE_OUTLINE
 10
511618.00
 20
1146866.00
  0
VERTEX
  8
FEATURE_OUTLINE
 10
511608.00
 20
1146843.00
  0
VERTEX
  8
FEATURE_OUTLINE
 10
511580.00
 20
1146783.00
  0
VERTEX
  8
FEATURE_OUTLINE
 10
511564.00
 20
1146755.00
  0
VERTEX
  8
FEATURE_OUTLINE
 10
511553.00
 20
1146734.00
  0
VERTEX
  8
FEATURE_OUTLINE
 10
511545.00
 20
1146720.00
  0
VERTEX
  8
FEATURE_OUTLINE
 10
511530.00
 20
1146706.00
  0
VERTEX
  8
FEATURE_OUTLINE
 10
511508.00
 20
1146691.00
  0
VERTEX
  8
FEATURE_OUTLINE
 10
511488.00
 20
1146673.00
  0
VERTEX
  8
FEATURE_OUTLINE
 10
511478.78
 20
1146659.13
  0
SEQEND
  8
FEATURE_OUTLINE
  0
POLYLINE
  8
TRAIL
 66
     1
 62
     2
  6
DIVIDE2
  0
VERTEX
  8
TRAIL
 10
511407.00
 20
1146750.00
  0
VERTEX
  8
TRAIL
 10
511478.78
 20
1146659.13
  0
SEQEND
  8
TRAIL
  0
POLYLINE
  8
ACCESSWAY_CENTRELINE
 66
     1
 62
     1
  6
DASHED
  0
VERTEX
  8
ACCESSWAY_CENTRELINE
 10
514145.00
 20
1148059.00
  0
VERTEX
  8
ACCESSWAY_CENTRELINE
 10
514135.00
 20
1148004.00
  0
VERTEX
  8
ACCESSWAY_CENTRELINE
 10
514122.00
 20
1147926.00
  0
VERTEX
  8
ACCESSWAY_CENTRELINE
 10
514123.00
 20
1147865.00
  0
VERTEX
  8
ACCESSWAY_CENTRELINE
 10
514128.00
 20
1147798.00
  0
VERTEX
  8
ACCESSWAY_CENTRELINE
 10
514138.00
 20
1147757.00
  0
VERTEX
  8
ACCESSWAY_CENTRELINE
 10
514153.00
 20
1147687.00
  0
VERTEX
  8
ACCESSWAY_CENTRELINE
 10
514158.00
 20
1147636.00
  0
VERTEX
  8
ACCESSWAY_CENTRELINE
 10
514156.00
 20
1147593.00
  0
VERTEX
  8
ACCESSWAY_CENTRELINE
 10
514153.00
 20
1147573.00
  0
VERTEX
  8
ACCESSWAY_CENTRELINE
 10
514148.00
 20
1147560.00
  0
VERTEX
  8
ACCESSWAY_CENTRELINE
 10
514133.00
 20
1147539.00
  0
VERTEX
  8
ACCESSWAY_CENTRELINE
 10
514043.00
 20
1147419.00
  0
VERTEX
  8
ACCESSWAY_CENTRELINE
 10
514014.00
 20
1147380.00
  0
VERTEX
  8
ACCESSWAY_CENTRELINE
 10
513993.00
 20
1147348.00
  0
VERTEX
  8
ACCESSWAY_CENTRELINE
 10
513989.00
 20
1147330.00
  0
VERTEX
  8
ACCESSWAY_CENTRELINE
 10
513990.00
 20
1147316.00
  0
VERTEX
  8
ACCESSWAY_CENTRELINE
 10
513995.00
 20
1147302.00
  0
VERTEX
  8
ACCESSWAY_CENTRELINE
 10
514010.00
 20
1147268.00
  0
VERTEX
  8
ACCESSWAY_CENTRELINE
 10
514019.00
 20
1147243.00
  0
VERTEX
  8
ACCESSWAY_CENTRELINE
 10
514021.00
 20
1147228.00
  0
VERTEX
  8
ACCESSWAY_CENTRELINE
 10
514021.00
 20
1147200.00
  0
VERTEX
  8
ACCESSWAY_CENTRELINE
 10
513995.00
 20
1147088.00
  0
VERTEX
  8
ACCESSWAY_CENTRELINE
 10
513982.00
 20
1147038.00
  0
VERTEX
  8
ACCESSWAY_CENTRELINE
 10
513970.00
 20
1146988.00
  0
VERTEX
  8
ACCESSWAY_CENTRELINE
 10
513947.00
 20
1146910.00
  0
VERTEX
  8
ACCESSWAY_CENTRELINE
 10
513887.00
 20
1146806.00
  0
VERTEX
  8
ACCESSWAY_CENTRELINE
 10
513837.00
 20
1146749.00
  0
VERTEX
  8
ACCESSWAY_CENTRELINE
 10
513802.00
 20
1146718.00
  0
VERTEX
  8
ACCESSWAY_CENTRELINE
 10
513785.00
 20
1146697.00
  0
VERTEX
  8
ACCESSWAY_CENTRELINE
 10
513781.00
 20
1146681.00
  0
VERTEX
  8
ACCESSWAY_CENTRELINE
 10
513780.00
 20
1146664.00
  0
VERTEX
  8
ACCESSWAY_CENTRELINE
 10
513784.00
 20
1146645.00
  0
VERTEX
  8
ACCESSWAY_CENTRELINE
 10
513792.00
 20
1146633.00
  0
SEQEND
  8
ACCESSWAY_CENTRELINE
  0
POLYLINE
  8
RAIL_LINE
 66
     1
 62
     6
  6
CONTINUOUS
  0
VERTEX
  8
RAIL_LINE
 10
512096.00
 20
1146629.00
  0
VERTEX
  8
RAIL_LINE
 10
512120.00
 20
1146647.00
  0
VERTEX
  8
RAIL_LINE
 10
512167.00
 20
1146695.00
  0
VERTEX
  8
RAIL_LINE
 10
512181.00
 20
1146728.00
  0
VERTEX
  8
RAIL_LINE
 10
512184.00
 20
1146744.00
  0
VERTEX
  8
RAIL_LINE
 10
512188.00
 20
1146755.00
  0
SEQEND
  8
RAIL_LINE
  0
POLYLINE
  8
RAIL_LINE
 66
     1
 62
     6
  6
CONTINUOUS
  0
VERTEX
  8
RAIL_LINE
 10
512096.00
 20
1146629.00
  0
VERTEX
  8
RAIL_LINE
 10
512124.00
 20
1146683.00
  0
VERTEX
  8
RAIL_LINE
 10
512160.00
 20
1146735.00
  0
VERTEX
  8
RAIL_LINE
 10
512172.00
 20
1146773.00
  0
VERTEX
  8
RAIL_LINE
 10
512187.00
 20
1146840.00
  0
VERTEX
  8
RAIL_LINE
 10
512210.00
 20
1146928.00
  0
VERTEX
  8
RAIL_LINE
 10
512221.00
 20
1146949.00
  0
VERTEX
  8
RAIL_LINE
 10
512233.00
 20
1146976.00
  0
SEQEND
  8
RAIL_LINE
  0
POLYLINE
  8
ACCESSWAY_CENTRELINE
 66
     1
 62
     1
  6
DASHED
  0
VERTEX
  8
ACCESSWAY_CENTRELINE
 10
513792.00
 20
1146633.00
  0
VERTEX
  8
ACCESSWAY_CENTRELINE
 10
513796.00
 20
1146627.00
  0
VERTEX
  8
ACCESSWAY_CENTRELINE
 10
513811.00
 20
1146625.00
  0
VERTEX
  8
ACCESSWAY_CENTRELINE
 10
513839.00
 20
1146636.00
  0
VERTEX
  8
ACCESSWAY_CENTRELINE
 10
513858.00
 20
1146644.00
  0
VERTEX
  8
ACCESSWAY_CENTRELINE
 10
513866.00
 20
1146646.00
  0
VERTEX
  8
ACCESSWAY_CENTRELINE
 10
513884.00
 20
1146645.00
  0
VERTEX
  8
ACCESSWAY_CENTRELINE
 10
513896.00
 20
1146644.00
  0
VERTEX
  8
ACCESSWAY_CENTRELINE
 10
513973.00
 20
1146654.00
  0
VERTEX
  8
ACCESSWAY_CENTRELINE
 10
514001.00
 20
1146656.00
  0
VERTEX
  8
ACCESSWAY_CENTRELINE
 10
514040.00
 20
1146664.00
  0
VERTEX
  8
ACCESSWAY_CENTRELINE
 10
514058.00
 20
1146664.00
  0
VERTEX
  8
ACCESSWAY_CENTRELINE
 10
514066.00
 20
1146659.00
  0
VERTEX
  8
ACCESSWAY_CENTRELINE
 10
514069.00
 20
1146655.00
  0
SEQEND
  8
ACCESSWAY_CENTRELINE
  0
POLYLINE
  8
TRAIL
 66
     1
 62
     2
  6
DIVIDE2
  0
VERTEX
  8
TRAIL
 10
513792.00
 20
1146633.00
  0
VERTEX
  8
TRAIL
 10
513740.00
 20
1146617.00
  0
VERTEX
  8
TRAIL
 10
513668.00
 20
1146616.00
  0
VERTEX
  8
TRAIL
 10
513615.00
 20
1146623.00
  0
VERTEX
  8
TRAIL
 10
513572.00
 20
1146610.00
  0
VERTEX
  8
TRAIL
 10
513545.00
 20
1146599.00
  0
SEQEND
  8
TRAIL
  0
POLYLINE
  8
RAIL_LINE
 66
     1
 62
     6
  6
CONTINUOUS
  0
VERTEX
  8
RAIL_LINE
 10
512963.00
 20
1147713.00
  0
VERTEX
  8
RAIL_LINE
 10
513002.00
 20
1147683.00
  0
VERTEX
  8
RAIL_LINE
 10
513082.00
 20
1147651.00
  0
VERTEX
  8
RAIL_LINE
 10
513152.00
 20
1147626.00
  0
VERTEX
  8
RAIL_LINE
 10
513239.00
 20
1147609.00
  0
VERTEX
  8
RAIL_LINE
 10
513290.00
 20
1147596.00
  0
VERTEX
  8
RAIL_LINE
 10
513368.00
 20
1147563.00
  0
VERTEX
  8
RAIL_LINE
 10
513409.00
 20
1147536.00
  0
VERTEX
  8
RAIL_LINE
 10
513467.00
 20
1147492.00
  0
VERTEX
  8
RAIL_LINE
 10
513516.00
 20
1147427.00
  0
VERTEX
  8
RAIL_LINE
 10
513538.00
 20
1147385.00
  0
VERTEX
  8
RAIL_LINE
 10
513585.00
 20
1147287.00
  0
VERTEX
  8
RAIL_LINE
 10
513672.00
 20
1147101.00
  0
VERTEX
  8
RAIL_LINE
 10
513701.00
 20
1147026.00
  0
VERTEX
  8
RAIL_LINE
 10
513722.00
 20
1146964.00
  0
VERTEX
  8
RAIL_LINE
 10
513726.00
 20
1146926.00
  0
VERTEX
  8
RAIL_LINE
 10
513724.00
 20
1146873.00
  0
VERTEX
  8
RAIL_LINE
 10
513717.00
 20
1146823.00
  0
VERTEX
  8
RAIL_LINE
 10
513667.00
 20
1146730.00
  0
VERTEX
  8
RAIL_LINE
 10
513624.00
 20
1146684.00
  0
VERTEX
  8
RAIL_LINE
 10
513568.00
 20
1146622.00
  0
VERTEX
  8
RAIL_LINE
 10
513545.00
 20
1146599.00
  0
SEQEND
  8
RAIL_LINE
  0
POLYLINE
  8
RAIL_LINE
 66
     1
 62
     6
  6
CONTINUOUS
  0
VERTEX
  8
RAIL_LINE
 10
511962.00
 20
1146548.00
  0
VERTEX
  8
RAIL_LINE
 10
511992.00
 20
1146568.00
  0
VERTEX
  8
RAIL_LINE
 10
512058.00
 20
1146600.00
  0
VERTEX
  8
RAIL_LINE
 10
512096.00
 20
1146629.00
  0
SEQEND
  8
RAIL_LINE
  0
POLYLINE
  8
RAIL_LINE
 66
     1
 62
     6
  6
CONTINUOUS
  0
VERTEX
  8
RAIL_LINE
 10
511806.00
 20
1147004.00
  0
VERTEX
  8
RAIL_LINE
 10
511814.00
 20
1147010.00
  0
VERTEX
  8
RAIL_LINE
 10
511867.00
 20
1147041.00
  0
VERTEX
  8
RAIL_LINE
 10
511898.00
 20
1147046.00
  0
VERTEX
  8
RAIL_LINE
 10
511915.00
 20
1147047.00
  0
VERTEX
  8
RAIL_LINE
 10
511937.00
 20
1147041.00
  0
VERTEX
  8
RAIL_LINE
 10
511953.00
 20
1147034.00
  0
VERTEX
  8
RAIL_LINE
 10
512030.00
 20
1146971.00
  0
VERTEX
  8
RAIL_LINE
 10
512072.00
 20
1146922.00
  0
VERTEX
  8
RAIL_LINE
 10
512099.00
 20
1146884.00
  0
VERTEX
  8
RAIL_LINE
 10
512126.00
 20
1146816.00
  0
VERTEX
  8
RAIL_LINE
 10
512131.00
 20
1146767.00
  0
VERTEX
  8
RAIL_LINE
 10
512127.00
 20
1146747.00
  0
VERTEX
  8
RAIL_LINE
 10
512114.00
 20
1146721.00
  0
VERTEX
  8
RAIL_LINE
 10
512094.00
 20
1146694.00
  0
VERTEX
  8
RAIL_LINE
 10
512067.00
 20
1146670.00
  0
VERTEX
  8
RAIL_LINE
 10
512002.00
 20
1146602.00
  0
VERTEX
  8
RAIL_LINE
 10
511962.00
 20
1146548.00
  0
SEQEND
  8
RAIL_LINE
  0
POLYLINE
  8
RAIL_LINE
 66
     1
 62
     6
  6
CONTINUOUS
  0
VERTEX
  8
RAIL_LINE
 10
511749.00
 20
1146719.00
  0
VERTEX
  8
RAIL_LINE
 10
511762.00
 20
1146681.00
  0
VERTEX
  8
RAIL_LINE
 10
511800.00
 20
1146623.00
  0
VERTEX
  8
RAIL_LINE
 10
511835.00
 20
1146565.00
  0
VERTEX
  8
RAIL_LINE
 10
511857.00
 20
1146531.00
  0
VERTEX
  8
RAIL_LINE
 10
511869.00
 20
1146505.00
  0
SEQEND
  8
RAIL_LINE
  0
POLYLINE
  8
RAIL_LINE
 66
     1
 62
     6
  6
CONTINUOUS
  0
VERTEX
  8
RAIL_LINE
 10
511911.00
 20
1146475.00
  0
VERTEX
  8
RAIL_LINE
 10
511956.00
 20
1146510.00
  0
SEQEND
  8
RAIL_LINE
  0
POLYLINE
  8
RAIL_LINE
 66
     1
 62
     6
  6
CONTINUOUS
  0
VERTEX
  8
RAIL_LINE
 10
511962.00
 20
1146548.00
  0
VERTEX
  8
RAIL_LINE
 10
511944.00
 20
1146523.00
  0
VERTEX
  8
RAIL_LINE
 10
511911.00
 20
1146475.00
  0
SEQEND
  8
RAIL_LINE
  0
POLYLINE
  8
TRAIL
 66
     1
 62
     2
  6
DIVIDE2
  0
VERTEX
  8
TRAIL
 10
511901.00
 20
1146457.00
  0
VERTEX
  8
TRAIL
 10
511929.00
 20
1146475.00
  0
VERTEX
  8
TRAIL
 10
511956.00
 20
1146497.00
  0
VERTEX
  8
TRAIL
 10
511963.00
 20
1146501.00
  0
SEQEND
  8
TRAIL
  0
POLYLINE
  8
RAIL_LINE
 66
     1
 62
     6
  6
CONTINUOUS
  0
VERTEX
  8
RAIL_LINE
 10
511911.00
 20
1146475.00
  0
VERTEX
  8
RAIL_LINE
 10
511906.00
 20
1146468.00
  0
VERTEX
  8
RAIL_LINE
 10
511901.00
 20
1146457.00
  0
SEQEND
  8
RAIL_LINE
  0
POLYLINE
  8
TRAIL
 66
     1
 62
     2
  6
DIVIDE2
  0
VERTEX
  8
TRAIL
 10
511892.59
 20
1146451.88
  0
VERTEX
  8
TRAIL
 10
511901.00
 20
1146457.00
  0
SEQEND
  8
TRAIL
  0
POLYLINE
  8
FEATURE_OUTLINE
 66
     1
 62
     2
  6
CONTINUOUS
  0
VERTEX
  8
FEATURE_OUTLINE
 10
511892.59
 20
1146451.88
  0
VERTEX
  8
FEATURE_OUTLINE
 10
511885.00
 20
1146467.00
  0
VERTEX
  8
FEATURE_OUTLINE
 10
511882.00
 20
1146481.00
  0
VERTEX
  8
FEATURE_OUTLINE
 10
511880.00
 20
1146497.00
  0
VERTEX
  8
FEATURE_OUTLINE
 10
511878.00
 20
1146510.00
  0
VERTEX
  8
FEATURE_OUTLINE
 10
511871.00
 20
1146537.00
  0
VERTEX
  8
FEATURE_OUTLINE
 10
511871.00
 20
1146556.00
  0
VERTEX
  8
FEATURE_OUTLINE
 10
511869.00
 20
1146568.00
  0
VERTEX
  8
FEATURE_OUTLINE
 10
511861.00
 20
1146580.00
  0
VERTEX
  8
FEATURE_OUTLINE
 10
511849.00
 20
1146590.00
  0
VERTEX
  8
FEATURE_OUTLINE
 10
511841.00
 20
1146594.00
  0
VERTEX
  8
FEATURE_OUTLINE
 10
511835.00
 20
1146600.00
  0
VERTEX
  8
FEATURE_OUTLINE
 10
511826.00
 20
1146622.00
  0
VERTEX
  8
FEATURE_OUTLINE
 10
511818.00
 20
1146640.00
  0
VERTEX
  8
FEATURE_OUTLINE
 10
511812.00
 20
1146655.00
  0
VERTEX
  8
FEATURE_OUTLINE
 10
511804.00
 20
1146669.00
  0
VERTEX
  8
FEATURE_OUTLINE
 10
511796.00
 20
1146684.00
  0
VERTEX
  8
FEATURE_OUTLINE
 10
511789.00
 20
1146697.00
  0
VERTEX
  8
FEATURE_OUTLINE
 10
511778.00
 20
1146716.00
  0
VERTEX
  8
FEATURE_OUTLINE
 10
511769.00
 20
1146739.00
  0
VERTEX
  8
FEATURE_OUTLINE
 10
511764.00
 20
1146763.00
  0
VERTEX
  8
FEATURE_OUTLINE
 10
511762.00
 20
1146787.00
  0
VERTEX
  8
FEATURE_OUTLINE
 10
511763.00
 20
1146810.00
  0
VERTEX
  8
FEATURE_OUTLINE
 10
511766.00
 20
1146834.00
  0
VERTEX
  8
FEATURE_OUTLINE
 10
511769.00
 20
1146859.00
  0
VERTEX
  8
FEATURE_OUTLINE
 10
511773.00
 20
1146880.00
  0
VERTEX
  8
FEATURE_OUTLINE
 10
511776.00
 20
1146896.00
  0
VERTEX
  8
FEATURE_OUTLINE
 10
511777.00
 20
1146911.00
  0
VERTEX
  8
FEATURE_OUTLINE
 10
511775.03
 20
1146916.88
  0
SEQEND
  8
FEATURE_OUTLINE
  0
POLYLINE
  8
RAIL_LINE
 66
     1
 62
     6
  6
CONTINUOUS
  0
VERTEX
  8
RAIL_LINE
 10
511901.00
 20
1146457.00
  0
VERTEX
  8
RAIL_LINE
 10
511896.03
 20
1146446.75
  0
SEQEND
  8
RAIL_LINE
  0
POLYLINE
  8
FEATURE_OUTLINE
 66
     1
 62
     2
  6
CONTINUOUS
  0
VERTEX
  8
FEATURE_OUTLINE
 10
511896.03
 20
1146446.75
  0
VERTEX
  8
FEATURE_OUTLINE
 10
511894.00
 20
1146449.00
  0
VERTEX
  8
FEATURE_OUTLINE
 10
511892.59
 20
1146451.88
  0
SEQEND
  8
FEATURE_OUTLINE
  0
POLYLINE
  8
RAIL_LINE
 66
     1
 62
     6
  6
CONTINUOUS
  0
VERTEX
  8
RAIL_LINE
 10
511749.00
 20
1146719.00
  0
VERTEX
  8
RAIL_LINE
 10
511762.00
 20
1146640.00
  0
VERTEX
  8
RAIL_LINE
 10
511792.00
 20
1146524.00
  0
VERTEX
  8
RAIL_LINE
 10
511795.00
 20
1146510.00
  0
VERTEX
  8
RAIL_LINE
 10
511805.00
 20
1146467.00
  0
VERTEX
  8
RAIL_LINE
 10
511808.00
 20
1146451.00
  0
VERTEX
  8
RAIL_LINE
 10
511810.00
 20
1146427.00
  0
SEQEND
  8
RAIL_LINE
  0
POLYLINE
  8
TRAIL
 66
     1
 62
     2
  6
DIVIDE2
  0
VERTEX
  8
TRAIL
 10
511478.78
 20
1146659.13
  0
VERTEX
  8
TRAIL
 10
511486.00
 20
1146650.00
  0
VERTEX
  8
TRAIL
 10
511574.00
 20
1146530.00
  0
VERTEX
  8
TRAIL
 10
511621.00
 20
1146482.00
  0
VERTEX
  8
TRAIL
 10
511663.00
 20
1146455.00
  0
VERTEX
  8
TRAIL
 10
511706.00
 20
1146438.00
  0
VERTEX
  8
TRAIL
 10
511735.00
 20
1146429.00
  0
VERTEX
  8
TRAIL
 10
511810.00
 20
1146427.00
  0
SEQEND
  8
TRAIL
  0
POLYLINE
  8
TRAIL
 66
     1
 62
     2
  6
DIVIDE2
  0
VERTEX
  8
TRAIL
 10
511810.00
 20
1146427.00
  0
VERTEX
  8
TRAIL
 10
511817.00
 20
1146427.00
  0
VERTEX
  8
TRAIL
 10
511856.00
 20
1146439.00
  0
VERTEX
  8
TRAIL
 10
511888.00
 20
1146449.00
  0
VERTEX
  8
TRAIL
 10
511892.59
 20
1146451.88
  0
SEQEND
  8
TRAIL
  0
POLYLINE
  8
RAIL_LINE
 66
     1
 62
     6
  6
CONTINUOUS
  0
VERTEX
  8
RAIL_LINE
 10
511810.00
 20
1146427.00
  0
VERTEX
  8
RAIL_LINE
 10
511812.00
 20
1146400.00
  0
VERTEX
  8
RAIL_LINE
 10
511813.00
 20
1146372.00
  0
VERTEX
  8
RAIL_LINE
 10
511812.00
 20
1146361.00
  0
SEQEND
  8
RAIL_LINE
  0
POLYLINE
  8
FEATURE_OUTLINE
 66
     1
 62
     2
  6
CONTINUOUS
  0
VERTEX
  8
FEATURE_OUTLINE
 10
511478.78
 20
1146659.13
  0
VERTEX
  8
FEATURE_OUTLINE
 10
511474.00
 20
1146652.00
  0
VERTEX
  8
FEATURE_OUTLINE
 10
511468.00
 20
1146618.00
  0
VERTEX
  8
FEATURE_OUTLINE
 10
511463.00
 20
1146590.00
  0
VERTEX
  8
FEATURE_OUTLINE
 10
511460.00
 20
1146565.00
  0
VERTEX
  8
FEATURE_OUTLINE
 10
511457.00
 20
1146546.00
  0
VERTEX
  8
FEATURE_OUTLINE
 10
511452.00
 20
1146527.00
  0
VERTEX
  8
FEATURE_OUTLINE
 10
511454.00
 20
1146510.00
  0
VERTEX
  8
FEATURE_OUTLINE
 10
511457.00
 20
1146497.00
  0
VERTEX
  8
FEATURE_OUTLINE
 10
511464.00
 20
1146487.00
  0
VERTEX
  8
FEATURE_OUTLINE
 10
511476.00
 20
1146479.00
  0
VERTEX
  8
FEATURE_OUTLINE
 10
511495.00
 20
1146466.00
  0
VERTEX
  8
FEATURE_OUTLINE
 10
511508.00
 20
1146452.00
  0
VERTEX
  8
FEATURE_OUTLINE
 10
511513.00
 20
1146435.00
  0
VERTEX
  8
FEATURE_OUTLINE
 10
511513.00
 20
1146416.00
  0
VERTEX
  8
FEATURE_OUTLINE
 10
511506.00
 20
1146367.00
  0
VERTEX
  8
FEATURE_OUTLINE
 10
511503.00
 20
1146355.00
  0
VERTEX
  8
FEATURE_OUTLINE
 10
511495.00
 20
1146332.00
  0
VERTEX
  8
FEATURE_OUTLINE
 10
511483.00
 20
1146319.00
  0
VERTEX
  8
FEATURE_OUTLINE
 10
511467.00
 20
1146314.00
  0
VERTEX
  8
FEATURE_OUTLINE
 10
511453.00
 20
1146312.00
  0
VERTEX
  8
FEATURE_OUTLINE
 10
511438.00
 20
1146313.00
  0
VERTEX
  8
FEATURE_OUTLINE
 10
511420.00
 20
1146321.00
  0
VERTEX
  8
FEATURE_OUTLINE
 10
511404.00
 20
1146331.00
  0
VERTEX
  8
FEATURE_OUTLINE
 10
511390.00
 20
1146345.00
  0
VERTEX
  8
FEATURE_OUTLINE
 10
511369.00
 20
1146361.00
  0
VERTEX
  8
FEATURE_OUTLINE
 10
511347.00
 20
1146371.00
  0
VERTEX
  8
FEATURE_OUTLINE
 10
511321.00
 20
1146377.00
  0
VERTEX
  8
FEATURE_OUTLINE
 10
511293.00
 20
1146373.00
  0
SEQEND
  8
FEATURE_OUTLINE
  0
POLYLINE
  8
FEATURE_OUTLINE
 66
     1
 62
     2
  6
CONTINUOUS
  0
VERTEX
  8
FEATURE_OUTLINE
 10
511639.00
 20
1146363.00
  0
VERTEX
  8
FEATURE_OUTLINE
 10
511629.00
 20
1146347.00
  0
VERTEX
  8
FEATURE_OUTLINE
 10
511625.00
 20
1146340.00
  0
VERTEX
  8
FEATURE_OUTLINE
 10
511619.00
 20
1146330.00
  0
VERTEX
  8
FEATURE_OUTLINE
 10
511612.00
 20
1146321.00
  0
VERTEX
  8
FEATURE_OUTLINE
 10
511606.00
 20
1146314.00
  0
VERTEX
  8
FEATURE_OUTLINE
 10
511599.00
 20
1146309.00
  0
VERTEX
  8
FEATURE_OUTLINE
 10
511591.00
 20
1146309.00
  0
VERTEX
  8
FEATURE_OUTLINE
 10
511582.00
 20
1146312.00
  0
VERTEX
  8
FEATURE_OUTLINE
 10
511572.00
 20
1146317.00
  0
VERTEX
  8
FEATURE_OUTLINE
 10
511569.00
 20
1146321.00
  0
VERTEX
  8
FEATURE_OUTLINE
 10
511565.00
 20
1146331.00
  0
VERTEX
  8
FEATURE_OUTLINE
 10
511566.00
 20
1146339.00
  0
VERTEX
  8
FEATURE_OUTLINE
 10
511569.00
 20
1146350.00
  0
VERTEX
  8
FEATURE_OUTLINE
 10
511573.00
 20
1146362.00
  0
VERTEX
  8
FEATURE_OUTLINE
 10
511580.00
 20
1146373.00
  0
VERTEX
  8
FEATURE_OUTLINE
 10
511587.00
 20
1146387.00
  0
VERTEX
  8
FEATURE_OUTLINE
 10
511593.00
 20
1146400.00
  0
VERTEX
  8
FEATURE_OUTLINE
 10
511597.00
 20
1146409.00
  0
VERTEX
  8
FEATURE_OUTLINE
 10
511603.00
 20
1146413.00
  0
VERTEX
  8
FEATURE_OUTLINE
 10
511614.00
 20
1146414.00
  0
VERTEX
  8
FEATURE_OUTLINE
 10
511626.00
 20
1146411.00
  0
VERTEX
  8
FEATURE_OUTLINE
 10
511636.00
 20
1146405.00
  0
VERTEX
  8
FEATURE_OUTLINE
 10
511645.00
 20
1146397.00
  0
VERTEX
  8
FEATURE_OUTLINE
 10
511650.00
 20
1146388.00
  0
VERTEX
  8
FEATURE_OUTLINE
 10
511649.00
 20
1146380.00
  0
VERTEX
  8
FEATURE_OUTLINE
 10
511639.00
 20
1146363.00
  0
SEQEND
  8
FEATURE_OUTLINE
  0
POLYLINE
  8
RAIL_LINE
 66
     1
 62
     6
  6
CONTINUOUS
  0
VERTEX
  8
RAIL_LINE
 10
511896.03
 20
1146446.75
  0
VERTEX
  8
RAIL_LINE
 10
511875.00
 20
1146403.00
  0
VERTEX
  8
RAIL_LINE
 10
511860.00
 20
1146367.00
  0
VERTEX
  8
RAIL_LINE
 10
511851.00
 20
1146333.00
  0
VERTEX
  8
RAIL_LINE
 10
511845.00
 20
1146300.00
  0
SEQEND
  8
RAIL_LINE
  0
POLYLINE
  8
TRAIL
 66
     1
 62
     2
  6
DIVIDE2
  0
VERTEX
  8
TRAIL
 10
511407.00
 20
1146750.00
  0
VERTEX
  8
TRAIL
 10
511382.00
 20
1146691.00
  0
VERTEX
  8
TRAIL
 10
511367.00
 20
1146617.00
  0
VERTEX
  8
TRAIL
 10
511356.00
 20
1146596.00
  0
VERTEX
  8
TRAIL
 10
511336.00
 20
1146574.00
  0
VERTEX
  8
TRAIL
 10
511268.00
 20
1146516.00
  0
VERTEX
  8
TRAIL
 10
511227.00
 20
1146471.00
  0
VERTEX
  8
TRAIL
 10
511182.00
 20
1146415.00
  0
VERTEX
  8
TRAIL
 10
511153.00
 20
1146379.00
  0
VERTEX
  8
TRAIL
 10
511058.00
 20
1146277.00
  0
VERTEX
  8
TRAIL
 10
511033.00
 20
1146258.00
  0
SEQEND
  8
TRAIL
  0
POLYLINE
  8
TRAIL
 66
     1
 62
     2
  6
DIVIDE2
  0
VERTEX
  8
TRAIL
 10
511033.00
 20
1146258.00
  0
VERTEX
  8
TRAIL
 10
511005.00
 20
1146336.00
  0
VERTEX
  8
TRAIL
 10
510952.00
 20
1146450.00
  0
VERTEX
  8
TRAIL
 10
510914.00
 20
1146506.00
  0
VERTEX
  8
TRAIL
 10
510894.00
 20
1146550.00
  0
VERTEX
  8
TRAIL
 10
510877.00
 20
1146596.00
  0
VERTEX
  8
TRAIL
 10
510867.00
 20
1146622.00
  0
SEQEND
  8
TRAIL
  0
POLYLINE
  8
TRAIL
 66
     1
 62
     2
  6
DIVIDE2
  0
VERTEX
  8
TRAIL
 10
511033.00
 20
1146258.00
  0
VERTEX
  8
TRAIL
 10
511015.00
 20
1146244.00
  0
VERTEX
  8
TRAIL
 10
510993.00
 20
1146213.00
  0
VERTEX
  8
TRAIL
 10
510989.00
 20
1146205.00
  0
SEQEND
  8
TRAIL
  0
POLYLINE
  8
TRANSMISSION_LINE_CROSS_COUNTRY
 66
     1
 62
     7
  6
DASHDOT
  0
VERTEX
  8
TRANSMISSION_LINE_CROSS_COUNTRY
 10
510735.00
 20
1146838.00
  0
VERTEX
  8
TRANSMISSION_LINE_CROSS_COUNTRY
 10
510796.00
 20
1146567.00
  0
VERTEX
  8
TRANSMISSION_LINE_CROSS_COUNTRY
 10
510989.00
 20
1146205.00
  0
SEQEND
  8
TRANSMISSION_LINE_CROSS_COUNTRY
  0
POLYLINE
  8
TRAIL
 66
     1
 62
     2
  6
DIVIDE2
  0
VERTEX
  8
TRAIL
 10
510989.00
 20
1146205.00
  0
VERTEX
  8
TRAIL
 10
510964.00
 20
1146147.00
  0
VERTEX
  8
TRAIL
 10
510939.00
 20
1146091.00
  0
SEQEND
  8
TRAIL
  0
POLYLINE
  8
TRANSMISSION_LINE_CROSS_COUNTRY
 66
     1
 62
     7
  6
DASHDOT
  0
VERTEX
  8
TRANSMISSION_LINE_CROSS_COUNTRY
 10
510939.00
 20
1146091.00
  0
VERTEX
  8
TRANSMISSION_LINE_CROSS_COUNTRY
 10
510892.00
 20
1146174.00
  0
VERTEX
  8
TRANSMISSION_LINE_CROSS_COUNTRY
 10
510786.00
 20
1146381.00
  0
VERTEX
  8
TRANSMISSION_LINE_CROSS_COUNTRY
 10
510700.00
 20
1146517.00
  0
VERTEX
  8
TRANSMISSION_LINE_CROSS_COUNTRY
 10
510667.00
 20
1146675.00
  0
SEQEND
  8
TRANSMISSION_LINE_CROSS_COUNTRY
  0
POLYLINE
  8
RAIL_LINE
 66
     1
 62
     6
  6
CONTINUOUS
  0
VERTEX
  8
RAIL_LINE
 10
511812.00
 20
1146361.00
  0
VERTEX
  8
RAIL_LINE
 10
511795.00
 20
1146307.00
  0
VERTEX
  8
RAIL_LINE
 10
511777.00
 20
1146274.00
  0
VERTEX
  8
RAIL_LINE
 10
511757.00
 20
1146241.00
  0
VERTEX
  8
RAIL_LINE
 10
511720.00
 20
1146202.00
  0
VERTEX
  8
RAIL_LINE
 10
511679.00
 20
1146167.00
  0
VERTEX
  8
RAIL_LINE
 10
511642.00
 20
1146144.00
  0
VERTEX
  8
RAIL_LINE
 10
511565.00
 20
1146096.00
  0
VERTEX
  8
RAIL_LINE
 10
511524.00
 20
1146072.00
  0
VERTEX
  8
RAIL_LINE
 10
511500.00
 20
1146064.00
  0
VERTEX
  8
RAIL_LINE
 10
511472.00
 20
1146057.00
  0
VERTEX
  8
RAIL_LINE
 10
511440.00
 20
1146055.00
  0
VERTEX
  8
RAIL_LINE
 10
511397.00
 20
1146060.00
  0
VERTEX
  8
RAIL_LINE
 10
511362.00
 20
1146068.00
  0
VERTEX
  8
RAIL_LINE
 10
511317.00
 20
1146083.00
  0
VERTEX
  8
RAIL_LINE
 10
511270.00
 20
1146102.00
  0
VERTEX
  8
RAIL_LINE
 10
511236.00
 20
1146123.00
  0
VERTEX
  8
RAIL_LINE
 10
511216.00
 20
1146141.00
  0
VERTEX
  8
RAIL_LINE
 10
511186.00
 20
1146170.00
  0
SEQEND
  8
RAIL_LINE
  0
POLYLINE
  8
TRAIL
 66
     1
 62
     2
  6
DIVIDE2
  0
VERTEX
  8
TRAIL
 10
510939.00
 20
1146091.00
  0
VERTEX
  8
TRAIL
 10
510935.00
 20
1146081.00
  0
VERTEX
  8
TRAIL
 10
510924.00
 20
1146047.00
  0
VERTEX
  8
TRAIL
 10
510913.00
 20
1146022.00
  0
SEQEND
  8
TRAIL
  0
POLYLINE
  8
RAIL_LINE
 66
     1
 62
     6
  6
CONTINUOUS
  0
VERTEX
  8
RAIL_LINE
 10
511812.00
 20
1146361.00
  0
VERTEX
  8
RAIL_LINE
 10
511810.00
 20
1146344.00
  0
VERTEX
  8
RAIL_LINE
 10
511808.00
 20
1146315.00
  0
VERTEX
  8
RAIL_LINE
 10
511802.00
 20
1146278.00
  0
VERTEX
  8
RAIL_LINE
 10
511797.00
 20
1146252.00
  0
VERTEX
  8
RAIL_LINE
 10
511793.00
 20
1146229.00
  0
VERTEX
  8
RAIL_LINE
 10
511789.00
 20
1146203.00
  0
VERTEX
  8
RAIL_LINE
 10
511782.00
 20
1146171.00
  0
VERTEX
  8
RAIL_LINE
 10
511780.00
 20
1146136.00
  0
VERTEX
  8
RAIL_LINE
 10
511785.00
 20
1146098.00
  0
VERTEX
  8
RAIL_LINE
 10
511798.00
 20
1146065.00
  0
VERTEX
  8
RAIL_LINE
 10
511814.00
 20
1146040.00
  0
VERTEX
  8
RAIL_LINE
 10
511838.00
 20
1146016.00
  0
VERTEX
  8
RAIL_LINE
 10
511867.00
 20
1145990.00
  0
VERTEX
  8
RAIL_LINE
 10
511905.00
 20
1145973.00
  0
VERTEX
  8
RAIL_LINE
 10
511952.00
 20
1145965.00
  0
VERTEX
  8
RAIL_LINE
 10
511973.00
 20
1145973.00
  0
VERTEX
  8
RAIL_LINE
 10
512013.00
 20
1145987.00
  0
VERTEX
  8
RAIL_LINE
 10
512052.00
 20
1146010.00
  0
VERTEX
  8
RAIL_LINE
 10
512080.00
 20
1146038.00
  0
VERTEX
  8
RAIL_LINE
 10
512100.00
 20
1146070.00
  0
VERTEX
  8
RAIL_LINE
 10
512113.00
 20
1146103.00
  0
VERTEX
  8
RAIL_LINE
 10
512120.00
 20
1146139.00
  0
VERTEX
  8
RAIL_LINE
 10
512122.00
 20
1146175.00
  0
VERTEX
  8
RAIL_LINE
 10
512121.00
 20
1146202.00
  0
VERTEX
  8
RAIL_LINE
 10
512112.00
 20
1146264.00
  0
SEQEND
  8
RAIL_LINE
  0
POLYLINE
  8
FEATURE_OUTLINE
 66
     1
 62
     2
  6
CONTINUOUS
  0
VERTEX
  8
FEATURE_OUTLINE
 10
511293.00
 20
1146373.00
  0
VERTEX
  8
FEATURE_OUTLINE
 10
511283.00
 20
1146367.00
  0
VERTEX
  8
FEATURE_OUTLINE
 10
511269.00
 20
1146360.00
  0
VERTEX
  8
FEATURE_OUTLINE
 10
511258.00
 20
1146358.00
  0
VERTEX
  8
FEATURE_OUTLINE
 10
511249.00
 20
1146358.00
  0
VERTEX
  8
FEATURE_OUTLINE
 10
511217.00
 20
1146357.00
  0
VERTEX
  8
FEATURE_OUTLINE
 10
511211.00
 20
1146353.00
  0
VERTEX
  8
FEATURE_OUTLINE
 10
511196.00
 20
1146340.00
  0
VERTEX
  8
FEATURE_OUTLINE
 10
511185.00
 20
1146327.00
  0
VERTEX
  8
FEATURE_OUTLINE
 10
511179.00
 20
1146302.00
  0
VERTEX
  8
FEATURE_OUTLINE
 10
511175.00
 20
1146275.00
  0
VERTEX
  8
FEATURE_OUTLINE
 10
511173.00
 20
1146246.00
  0
VERTEX
  8
FEATURE_OUTLINE
 10
511168.00
 20
1146214.00
  0
VERTEX
  8
FEATURE_OUTLINE
 10
511165.00
 20
1146187.00
  0
VERTEX
  8
FEATURE_OUTLINE
 10
511164.00
 20
1146160.00
  0
VERTEX
  8
FEATURE_OUTLINE
 10
511167.00
 20
1146138.00
  0
VERTEX
  8
FEATURE_OUTLINE
 10
511175.00
 20
1146122.00
  0
VERTEX
  8
FEATURE_OUTLINE
 10
511187.00
 20
1146109.00
  0
VERTEX
  8
FEATURE_OUTLINE
 10
511198.00
 20
1146102.00
  0
VERTEX
  8
FEATURE_OUTLINE
 10
511211.00
 20
1146098.00
  0
VERTEX
  8
FEATURE_OUTLINE
 10
511226.00
 20
1146091.00
  0
VERTEX
  8
FEATURE_OUTLINE
 10
511242.00
 20
1146078.00
  0
VERTEX
  8
FEATURE_OUTLINE
 10
511254.00
 20
1146066.00
  0
VERTEX
  8
FEATURE_OUTLINE
 10
511303.00
 20
1146027.00
  0
VERTEX
  8
FEATURE_OUTLINE
 10
511328.00
 20
1146008.00
  0
VERTEX
  8
FEATURE_OUTLINE
 10
511346.00
 20
1145991.00
  0
VERTEX
  8
FEATURE_OUTLINE
 10
511363.00
 20
1145983.00
  0
VERTEX
  8
FEATURE_OUTLINE
 10
511396.00
 20
1145977.00
  0
VERTEX
  8
FEATURE_OUTLINE
 10
511420.00
 20
1145975.00
  0
VERTEX
  8
FEATURE_OUTLINE
 10
511437.00
 20
1145975.00
  0
VERTEX
  8
FEATURE_OUTLINE
 10
511450.00
 20
1145978.00
  0
VERTEX
  8
FEATURE_OUTLINE
 10
511467.00
 20
1145981.00
  0
VERTEX
  8
FEATURE_OUTLINE
 10
511479.00
 20
1145979.00
  0
VERTEX
  8
FEATURE_OUTLINE
 10
511488.00
 20
1145980.00
  0
VERTEX
  8
FEATURE_OUTLINE
 10
511497.00
 20
1145985.00
  0
VERTEX
  8
FEATURE_OUTLINE
 10
511511.00
 20
1145995.00
  0
VERTEX
  8
FEATURE_OUTLINE
 10
511526.00
 20
1146007.00
  0
VERTEX
  8
FEATURE_OUTLINE
 10
511542.00
 20
1146020.00
  0
VERTEX
  8
FEATURE_OUTLINE
 10
511562.00
 20
1146032.00
  0
VERTEX
  8
FEATURE_OUTLINE
 10
511579.00
 20
1146041.00
  0
VERTEX
  8
FEATURE_OUTLINE
 10
511602.00
 20
1146052.00
  0
VERTEX
  8
FEATURE_OUTLINE
 10
511619.00
 20
1146061.00
  0
VERTEX
  8
FEATURE_OUTLINE
 10
511635.00
 20
1146071.00
  0
VERTEX
  8
FEATURE_OUTLINE
 10
511650.00
 20
1146082.00
  0
VERTEX
  8
FEATURE_OUTLINE
 10
511702.00
 20
1146119.00
  0
VERTEX
  8
FEATURE_OUTLINE
 10
511711.00
 20
1146130.00
  0
VERTEX
  8
FEATURE_OUTLINE
 10
511723.00
 20
1146142.00
  0
VERTEX
  8
FEATURE_OUTLINE
 10
511730.00
 20
1146144.00
  0
VERTEX
  8
FEATURE_OUTLINE
 10
511737.00
 20
1146143.00
  0
VERTEX
  8
FEATURE_OUTLINE
 10
511747.00
 20
1146138.00
  0
VERTEX
  8
FEATURE_OUTLINE
 10
511755.00
 20
1146131.00
  0
VERTEX
  8
FEATURE_OUTLINE
 10
511759.00
 20
1146122.00
  0
VERTEX
  8
FEATURE_OUTLINE
 10
511761.00
 20
1146110.00
  0
VERTEX
  8
FEATURE_OUTLINE
 10
511761.00
 20
1146097.00
  0
VERTEX
  8
FEATURE_OUTLINE
 10
511762.00
 20
1146085.00
  0
VERTEX
  8
FEATURE_OUTLINE
 10
511765.00
 20
1146074.00
  0
VERTEX
  8
FEATURE_OUTLINE
 10
511772.00
 20
1146057.00
  0
VERTEX
  8
FEATURE_OUTLINE
 10
511782.00
 20
1146042.00
  0
VERTEX
  8
FEATURE_OUTLINE
 10
511793.00
 20
1146029.00
  0
VERTEX
  8
FEATURE_OUTLINE
 10
511803.00
 20
1146014.00
  0
VERTEX
  8
FEATURE_OUTLINE
 10
511810.00
 20
1146001.00
  0
VERTEX
  8
FEATURE_OUTLINE
 10
511818.00
 20
1145980.00
  0
VERTEX
  8
FEATURE_OUTLINE
 10
511827.00
 20
1145961.00
  0
VERTEX
  8
FEATURE_OUTLINE
 10
511838.00
 20
1145946.00
  0
VERTEX
  8
FEATURE_OUTLINE
 10
511852.00
 20
1145937.00
  0
VERTEX
  8
FEATURE_OUTLINE
 10
511869.00
 20
1145931.00
  0
VERTEX
  8
FEATURE_OUTLINE
 10
511891.00
 20
1145925.00
  0
VERTEX
  8
FEATURE_OUTLINE
 10
511917.00
 20
1145921.00
  0
VERTEX
  8
FEATURE_OUTLINE
 10
511938.00
 20
1145919.00
  0
VERTEX
  8
FEATURE_OUTLINE
 10
511956.00
 20
1145915.00
  0
VERTEX
  8
FEATURE_OUTLINE
 10
511971.00
 20
1145910.00
  0
VERTEX
  8
FEATURE_OUTLINE
 10
511986.00
 20
1145905.00
  0
VERTEX
  8
FEATURE_OUTLINE
 10
512005.00
 20
1145901.00
  0
VERTEX
  8
FEATURE_OUTLINE
 10
512014.00
 20
1145903.00
  0
VERTEX
  8
FEATURE_OUTLINE
 10
512019.00
 20
1145906.00
  0
VERTEX
  8
FEATURE_OUTLINE
 10
512027.00
 20
1145912.00
  0
VERTEX
  8
FEATURE_OUTLINE
 10
512036.00
 20
1145917.00
  0
VERTEX
  8
FEATURE_OUTLINE
 10
512048.00
 20
1145925.00
  0
VERTEX
  8
FEATURE_OUTLINE
 10
512062.00
 20
1145934.00
  0
VERTEX
  8
FEATURE_OUTLINE
 10
512080.00
 20
1145945.00
  0
VERTEX
  8
FEATURE_OUTLINE
 10
512101.00
 20
1145961.00
  0
VERTEX
  8
FEATURE_OUTLINE
 10
512116.00
 20
1145976.00
  0
VERTEX
  8
FEATURE_OUTLINE
 10
512129.00
 20
1145994.00
  0
VERTEX
  8
FEATURE_OUTLINE
 10
512141.00
 20
1146016.00
  0
VERTEX
  8
FEATURE_OUTLINE
 10
512150.00
 20
1146037.00
  0
VERTEX
  8
FEATURE_OUTLINE
 10
512155.00
 20
1146060.00
  0
VERTEX
  8
FEATURE_OUTLINE
 10
512163.00
 20
1146086.00
  0
VERTEX
  8
FEATURE_OUTLINE
 10
512167.00
 20
1146106.00
  0
VERTEX
  8
FEATURE_OUTLINE
 10
512168.00
 20
1146129.00
  0
VERTEX
  8
FEATURE_OUTLINE
 10
512167.00
 20
1146150.00
  0
VERTEX
  8
FEATURE_OUTLINE
 10
512165.00
 20
1146168.00
  0
VERTEX
  8
FEATURE_OUTLINE
 10
512163.00
 20
1146187.00
  0
VERTEX
  8
FEATURE_OUTLINE
 10
512160.00
 20
1146204.00
  0
VERTEX
  8
FEATURE_OUTLINE
 10
512156.00
 20
1146225.00
  0
VERTEX
  8
FEATURE_OUTLINE
 10
512151.00
 20
1146239.00
  0
VERTEX
  8
FEATURE_OUTLINE
 10
512141.00
 20
1146254.00
  0
VERTEX
  8
FEATURE_OUTLINE
 10
512133.00
 20
1146261.00
  0
VERTEX
  8
FEATURE_OUTLINE
 10
512124.00
 20
1146265.00
  0
VERTEX
  8
FEATURE_OUTLINE
 10
512113.00
 20
1146267.00
  0
VERTEX
  8
FEATURE_OUTLINE
 10
512105.00
 20
1146267.00
  0
VERTEX
  8
FEATURE_OUTLINE
 10
512099.00
 20
1146261.00
  0
VERTEX
  8
FEATURE_OUTLINE
 10
512082.00
 20
1146247.00
  0
VERTEX
  8
FEATURE_OUTLINE
 10
512068.00
 20
1146230.00
  0
VERTEX
  8
FEATURE_OUTLINE
 10
512057.00
 20
1146212.00
  0
VERTEX
  8
FEATURE_OUTLINE
 10
512046.00
 20
1146196.00
  0
VERTEX
  8
FEATURE_OUTLINE
 10
512034.00
 20
1146179.00
  0
VERTEX
  8
FEATURE_OUTLINE
 10
512022.00
 20
1146161.00
  0
VERTEX
  8
FEATURE_OUTLINE
 10
512011.00
 20
1146145.00
  0
VERTEX
  8
FEATURE_OUTLINE
 10
512005.00
 20
1146126.00
  0
VERTEX
  8
FEATURE_OUTLINE
 10
512003.00
 20
1146107.00
  0
VERTEX
  8
FEATURE_OUTLINE
 10
512002.00
 20
1146096.00
  0
VERTEX
  8
FEATURE_OUTLINE
 10
512000.00
 20
1146089.00
  0
VERTEX
  8
FEATURE_OUTLINE
 10
511996.00
 20
1146079.00
  0
VERTEX
  8
FEATURE_OUTLINE
 10
511988.00
 20
1146068.00
  0
VERTEX
  8
FEATURE_OUTLINE
 10
511966.00
 20
1146051.00
  0
VERTEX
  8
FEATURE_OUTLINE
 10
511951.00
 20
1146048.00
  0
VERTEX
  8
FEATURE_OUTLINE
 10
511941.00
 20
1146048.00
  0
VERTEX
  8
FEATURE_OUTLINE
 10
511917.00
 20
1146057.00
  0
VERTEX
  8
FEATURE_OUTLINE
 10
511903.00
 20
1146070.00
  0
VERTEX
  8
FEATURE_OUTLINE
 10
511889.00
 20
1146087.00
  0
VERTEX
  8
FEATURE_OUTLINE
 10
511882.00
 20
1146109.00
  0
VERTEX
  8
FEATURE_OUTLINE
 10
511881.00
 20
1146125.00
  0
VERTEX
  8
FEATURE_OUTLINE
 10
511885.00
 20
1146138.00
  0
VERTEX
  8
FEATURE_OUTLINE
 10
511892.00
 20
1146150.00
  0
VERTEX
  8
FEATURE_OUTLINE
 10
511913.00
 20
1146193.00
  0
VERTEX
  8
FEATURE_OUTLINE
 10
511927.00
 20
1146223.00
  0
VERTEX
  8
FEATURE_OUTLINE
 10
511938.00
 20
1146242.00
  0
VERTEX
  8
FEATURE_OUTLINE
 10
511948.00
 20
1146254.00
  0
VERTEX
  8
FEATURE_OUTLINE
 10
511964.00
 20
1146269.00
  0
VERTEX
  8
FEATURE_OUTLINE
 10
511975.00
 20
1146282.00
  0
VERTEX
  8
FEATURE_OUTLINE
 10
511979.00
 20
1146311.00
  0
VERTEX
  8
FEATURE_OUTLINE
 10
511978.00
 20
1146327.00
  0
VERTEX
  8
FEATURE_OUTLINE
 10
511975.00
 20
1146344.00
  0
VERTEX
  8
FEATURE_OUTLINE
 10
511969.00
 20
1146357.00
  0
VERTEX
  8
FEATURE_OUTLINE
 10
511959.00
 20
1146375.00
  0
VERTEX
  8
FEATURE_OUTLINE
 10
511951.00
 20
1146387.00
  0
VERTEX
  8
FEATURE_OUTLINE
 10
511940.00
 20
1146399.00
  0
VERTEX
  8
FEATURE_OUTLINE
 10
511926.00
 20
1146414.00
  0
VERTEX
  8
FEATURE_OUTLINE
 10
511911.00
 20
1146430.00
  0
VERTEX
  8
FEATURE_OUTLINE
 10
511896.03
 20
1146446.75
  0
SEQEND
  8
FEATURE_OUTLINE
  0
POLYLINE
  8
ROAD_CENTRELINE
 66
     1
 62
     1
  6
CONTINUOUS
  0
VERTEX
  8
ROAD_CENTRELINE
 10
516931.00
 20
1145144.00
  0
VERTEX
  8
ROAD_CENTRELINE
 10
516930.00
 20
1145128.00
  0
VERTEX
  8
ROAD_CENTRELINE
 10
516918.00
 20
1145061.00
  0
VERTEX
  8
ROAD_CENTRELINE
 10
516896.00
 20
1145014.00
  0
VERTEX
  8
ROAD_CENTRELINE
 10
516879.00
 20
1144982.00
  0
VERTEX
  8
ROAD_CENTRELINE
 10
516859.00
 20
1144952.00
  0
VERTEX
  8
ROAD_CENTRELINE
 10
516804.00
 20
1144873.00
  0
VERTEX
  8
ROAD_CENTRELINE
 10
516787.00
 20
1144839.00
  0
VERTEX
  8
ROAD_CENTRELINE
 10
516779.00
 20
1144812.00
  0
SEQEND
  8
ROAD_CENTRELINE
  0
POLYLINE
  8
ACCESSWAY_CENTRELINE
 66
     1
 62
     1
  6
DASHED
  0
VERTEX
  8
ACCESSWAY_CENTRELINE
 10
515419.00
 20
1144625.00
  0
VERTEX
  8
ACCESSWAY_CENTRELINE
 10
515418.00
 20
1144627.00
  0
VERTEX
  8
ACCESSWAY_CENTRELINE
 10
515401.00
 20
1144639.00
  0
VERTEX
  8
ACCESSWAY_CENTRELINE
 10
515384.00
 20
1144651.00
  0
VERTEX
  8
ACCESSWAY_CENTRELINE
 10
515370.00
 20
1144669.00
  0
VERTEX
  8
ACCESSWAY_CENTRELINE
 10
515354.00
 20
1144698.00
  0
VERTEX
  8
ACCESSWAY_CENTRELINE
 10
515334.00
 20
1144729.00
  0
VERTEX
  8
ACCESSWAY_CENTRELINE
 10
515312.00
 20
1144759.00
  0
VERTEX
  8
ACCESSWAY_CENTRELINE
 10
515289.00
 20
1144788.00
  0
VERTEX
  8
ACCESSWAY_CENTRELINE
 10
515285.00
 20
1144803.00
  0
VERTEX
  8
ACCESSWAY_CENTRELINE
 10
515282.00
 20
1144823.00
  0
VERTEX
  8
ACCESSWAY_CENTRELINE
 10
515286.00
 20
1144850.00
  0
VERTEX
  8
ACCESSWAY_CENTRELINE
 10
515293.00
 20
1144898.00
  0
VERTEX
  8
ACCESSWAY_CENTRELINE
 10
515291.00
 20
1144915.00
  0
VERTEX
  8
ACCESSWAY_CENTRELINE
 10
515285.00
 20
1144929.00
  0
VERTEX
  8
ACCESSWAY_CENTRELINE
 10
515272.00
 20
1144941.00
  0
VERTEX
  8
ACCESSWAY_CENTRELINE
 10
515251.00
 20
1144952.00
  0
VERTEX
  8
ACCESSWAY_CENTRELINE
 10
515241.00
 20
1144958.00
  0
SEQEND
  8
ACCESSWAY_CENTRELINE
  0
POLYLINE
  8
TRANSMISSION_LINE_CROSS_COUNTRY
 66
     1
 62
     7
  6
DASHDOT
  0
VERTEX
  8
TRANSMISSION_LINE_CROSS_COUNTRY
 10
510989.00
 20
1146205.00
  0
VERTEX
  8
TRANSMISSION_LINE_CROSS_COUNTRY
 10
511031.00
 20
1146127.00
  0
VERTEX
  8
TRANSMISSION_LINE_CROSS_COUNTRY
 10
511372.00
 20
1145611.00
  0
VERTEX
  8
TRANSMISSION_LINE_CROSS_COUNTRY
 10
511673.00
 20
1145176.00
  0
VERTEX
  8
TRANSMISSION_LINE_CROSS_COUNTRY
 10
511889.00
 20
1144833.00
  0
VERTEX
  8
TRANSMISSION_LINE_CROSS_COUNTRY
 10
512021.00
 20
1144614.00
  0
SEQEND
  8
TRANSMISSION_LINE_CROSS_COUNTRY
  0
POLYLINE
  8
TRAIL
 66
     1
 62
     2
  6
DIVIDE2
  0
VERTEX
  8
TRAIL
 10
514650.00
 20
1144587.00
  0
VERTEX
  8
TRAIL
 10
514664.00
 20
1144593.00
  0
VERTEX
  8
TRAIL
 10
514679.00
 20
1144604.00
  0
VERTEX
  8
TRAIL
 10
514704.00
 20
1144636.00
  0
VERTEX
  8
TRAIL
 10
514734.00
 20
1144661.00
  0
VERTEX
  8
TRAIL
 10
514800.00
 20
1144710.00
  0
VERTEX
  8
TRAIL
 10
514861.00
 20
1144757.00
  0
VERTEX
  8
TRAIL
 10
514901.00
 20
1144789.00
  0
VERTEX
  8
TRAIL
 10
514925.00
 20
1144804.00
  0
VERTEX
  8
TRAIL
 10
514948.00
 20
1144828.00
  0
SEQEND
  8
TRAIL
  0
POLYLINE
  8
RAIL_LINE
 66
     1
 62
     6
  6
CONTINUOUS
  0
VERTEX
  8
RAIL_LINE
 10
512021.00
 20
1144614.00
  0
VERTEX
  8
RAIL_LINE
 10
511982.00
 20
1144579.00
  0
VERTEX
  8
RAIL_LINE
 10
511960.00
 20
1144557.00
  0
SEQEND
  8
RAIL_LINE
  0
POLYLINE
  8
TRANSMISSION_LINE_CROSS_COUNTRY
 66
     1
 62
     7
  6
DASHDOT
  0
VERTEX
  8
TRANSMISSION_LINE_CROSS_COUNTRY
 10
511960.00
 20
1144557.00
  0
VERTEX
  8
TRANSMISSION_LINE_CROSS_COUNTRY
 10
511744.00
 20
1144883.00
  0
VERTEX
  8
TRANSMISSION_LINE_CROSS_COUNTRY
 10
511529.00
 20
1145213.00
  0
VERTEX
  8
TRANSMISSION_LINE_CROSS_COUNTRY
 10
511300.00
 20
1145552.00
  0
VERTEX
  8
TRANSMISSION_LINE_CROSS_COUNTRY
 10
511081.00
 20
1145878.00
  0
VERTEX
  8
TRANSMISSION_LINE_CROSS_COUNTRY
 10
510965.00
 20
1146046.00
  0
VERTEX
  8
TRANSMISSION_LINE_CROSS_COUNTRY
 10
510939.00
 20
1146091.00
  0
SEQEND
  8
TRANSMISSION_LINE_CROSS_COUNTRY
  0
POLYLINE
  8
TRAIL
 66
     1
 62
     2
  6
DIVIDE2
  0
VERTEX
  8
TRAIL
 10
515723.00
 20
1144412.00
  0
VERTEX
  8
TRAIL
 10
515724.00
 20
1144451.00
  0
VERTEX
  8
TRAIL
 10
515738.00
 20
1144529.00
  0
VERTEX
  8
TRAIL
 10
515749.00
 20
1144555.00
  0
VERTEX
  8
TRAIL
 10
515764.00
 20
1144607.00
  0
VERTEX
  8
TRAIL
 10
515756.00
 20
1144650.00
  0
VERTEX
  8
TRAIL
 10
515728.00
 20
1144691.00
  0
VERTEX
  8
TRAIL
 10
515698.00
 20
1144705.00
  0
VERTEX
  8
TRAIL
 10
515682.00
 20
1144708.00
  0
VERTEX
  8
TRAIL
 10
515643.00
 20
1144695.00
  0
VERTEX
  8
TRAIL
 10
515612.00
 20
1144674.00
  0
VERTEX
  8
TRAIL
 10
515586.00
 20
1144654.00
  0
VERTEX
  8
TRAIL
 10
515558.00
 20
1144642.00
  0
VERTEX
  8
TRAIL
 10
515489.00
 20
1144631.00
  0
VERTEX
  8
TRAIL
 10
515472.00
 20
1144629.00
  0
VERTEX
  8
TRAIL
 10
515419.00
 20
1144625.00
  0
SEQEND
  8
TRAIL
  0
POLYLINE
  8
ACCESSWAY_CENTRELINE
 66
     1
 62
     1
  6
DASHED
  0
VERTEX
  8
ACCESSWAY_CENTRELINE
 10
515723.00
 20
1144412.00
  0
VERTEX
  8
ACCESSWAY_CENTRELINE
 10
515718.00
 20
1144419.00
  0
VERTEX
  8
ACCESSWAY_CENTRELINE
 10
515704.00
 20
1144432.00
  0
VERTEX
  8
ACCESSWAY_CENTRELINE
 10
515692.00
 20
1144434.00
  0
VERTEX
  8
ACCESSWAY_CENTRELINE
 10
515677.00
 20
1144432.00
  0
VERTEX
  8
ACCESSWAY_CENTRELINE
 10
515655.00
 20
1144426.00
  0
VERTEX
  8
ACCESSWAY_CENTRELINE
 10
515616.00
 20
1144419.00
  0
VERTEX
  8
ACCESSWAY_CENTRELINE
 10
515576.00
 20
1144421.00
  0
VERTEX
  8
ACCESSWAY_CENTRELINE
 10
515543.00
 20
1144433.00
  0
VERTEX
  8
ACCESSWAY_CENTRELINE
 10
515511.00
 20
1144454.00
  0
VERTEX
  8
ACCESSWAY_CENTRELINE
 10
515491.00
 20
1144477.00
  0
VERTEX
  8
ACCESSWAY_CENTRELINE
 10
515479.00
 20
1144494.00
  0
VERTEX
  8
ACCESSWAY_CENTRELINE
 10
515471.00
 20
1144508.00
  0
VERTEX
  8
ACCESSWAY_CENTRELINE
 10
515442.00
 20
1144595.00
  0
VERTEX
  8
ACCESSWAY_CENTRELINE
 10
515419.00
 20
1144625.00
  0
SEQEND
  8
ACCESSWAY_CENTRELINE
  0
POLYLINE
  8
ACCESSWAY_CENTRELINE
 66
     1
 62
     1
  6
DASHED
  0
VERTEX
  8
ACCESSWAY_CENTRELINE
 10
516779.00
 20
1144812.00
  0
VERTEX
  8
ACCESSWAY_CENTRELINE
 10
516762.00
 20
1144809.00
  0
VERTEX
  8
ACCESSWAY_CENTRELINE
 10
516743.00
 20
1144804.00
  0
VERTEX
  8
ACCESSWAY_CENTRELINE
 10
516724.00
 20
1144782.00
  0
VERTEX
  8
ACCESSWAY_CENTRELINE
 10
516706.00
 20
1144752.00
  0
VERTEX
  8
ACCESSWAY_CENTRELINE
 10
516666.00
 20
1144691.00
  0
VERTEX
  8
ACCESSWAY_CENTRELINE
 10
516623.00
 20
1144633.00
  0
VERTEX
  8
ACCESSWAY_CENTRELINE
 10
516559.00
 20
1144581.00
  0
VERTEX
  8
ACCESSWAY_CENTRELINE
 10
516523.00
 20
1144548.00
  0
VERTEX
  8
ACCESSWAY_CENTRELINE
 10
516501.00
 20
1144520.00
  0
VERTEX
  8
ACCESSWAY_CENTRELINE
 10
516482.00
 20
1144493.00
  0
VERTEX
  8
ACCESSWAY_CENTRELINE
 10
516464.00
 20
1144463.00
  0
VERTEX
  8
ACCESSWAY_CENTRELINE
 10
516440.00
 20
1144429.00
  0
VERTEX
  8
ACCESSWAY_CENTRELINE
 10
516364.00
 20
1144371.00
  0
VERTEX
  8
ACCESSWAY_CENTRELINE
 10
516345.00
 20
1144357.00
  0
VERTEX
  8
ACCESSWAY_CENTRELINE
 10
516326.00
 20
1144350.00
  0
VERTEX
  8
ACCESSWAY_CENTRELINE
 10
516296.00
 20
1144353.00
  0
VERTEX
  8
ACCESSWAY_CENTRELINE
 10
516259.00
 20
1144353.00
  0
VERTEX
  8
ACCESSWAY_CENTRELINE
 10
516235.00
 20
1144353.00
  0
VERTEX
  8
ACCESSWAY_CENTRELINE
 10
516222.00
 20
1144353.00
  0
VERTEX
  8
ACCESSWAY_CENTRELINE
 10
516211.00
 20
1144356.00
  0
VERTEX
  8
ACCESSWAY_CENTRELINE
 10
516193.00
 20
1144364.00
  0
VERTEX
  8
ACCESSWAY_CENTRELINE
 10
516157.00
 20
1144389.00
  0
VERTEX
  8
ACCESSWAY_CENTRELINE
 10
516125.00
 20
1144400.00
  0
VERTEX
  8
ACCESSWAY_CENTRELINE
 10
516117.00
 20
1144400.00
  0
VERTEX
  8
ACCESSWAY_CENTRELINE
 10
516104.00
 20
1144401.00
  0
VERTEX
  8
ACCESSWAY_CENTRELINE
 10
516090.00
 20
1144397.00
  0
VERTEX
  8
ACCESSWAY_CENTRELINE
 10
516010.00
 20
1144349.00
  0
VERTEX
  8
ACCESSWAY_CENTRELINE
 10
515928.00
 20
1144278.00
  0
VERTEX
  8
ACCESSWAY_CENTRELINE
 10
515886.00
 20
1144246.00
  0
SEQEND
  8
ACCESSWAY_CENTRELINE
  0
POLYLINE
  8
ACCESSWAY_CENTRELINE
 66
     1
 62
     1
  6
DASHED
  0
VERTEX
  8
ACCESSWAY_CENTRELINE
 10
515886.00
 20
1144246.00
  0
VERTEX
  8
ACCESSWAY_CENTRELINE
 10
515860.00
 20
1144277.00
  0
VERTEX
  8
ACCESSWAY_CENTRELINE
 10
515812.00
 20
1144313.00
  0
VERTEX
  8
ACCESSWAY_CENTRELINE
 10
515786.00
 20
1144334.00
  0
VERTEX
  8
ACCESSWAY_CENTRELINE
 10
515759.00
 20
1144364.00
  0
VERTEX
  8
ACCESSWAY_CENTRELINE
 10
515739.00
 20
1144392.00
  0
VERTEX
  8
ACCESSWAY_CENTRELINE
 10
515723.00
 20
1144412.00
  0
SEQEND
  8
ACCESSWAY_CENTRELINE
  0
POLYLINE
  8
ROAD_CENTRELINE
 66
     1
 62
     1
  6
CONTINUOUS
  0
VERTEX
  8
ROAD_CENTRELINE
 10
516779.00
 20
1144812.00
  0
VERTEX
  8
ROAD_CENTRELINE
 10
516775.00
 20
1144798.00
  0
VERTEX
  8
ROAD_CENTRELINE
 10
516765.00
 20
1144755.00
  0
VERTEX
  8
ROAD_CENTRELINE
 10
516762.00
 20
1144724.00
  0
VERTEX
  8
ROAD_CENTRELINE
 10
516763.00
 20
1144696.00
  0
VERTEX
  8
ROAD_CENTRELINE
 10
516768.00
 20
1144645.00
  0
VERTEX
  8
ROAD_CENTRELINE
 10
516782.00
 20
1144552.00
  0
VERTEX
  8
ROAD_CENTRELINE
 10
516797.00
 20
1144502.00
  0
VERTEX
  8
ROAD_CENTRELINE
 10
516808.00
 20
1144466.00
  0
VERTEX
  8
ROAD_CENTRELINE
 10
516831.00
 20
1144389.00
  0
VERTEX
  8
ROAD_CENTRELINE
 10
516853.00
 20
1144350.00
  0
VERTEX
  8
ROAD_CENTRELINE
 10
516867.00
 20
1144331.00
  0
VERTEX
  8
ROAD_CENTRELINE
 10
516893.00
 20
1144299.00
  0
VERTEX
  8
ROAD_CENTRELINE
 10
516941.00
 20
1144243.00
  0
VERTEX
  8
ROAD_CENTRELINE
 10
517003.00
 20
1144160.00
  0
VERTEX
  8
ROAD_CENTRELINE
 10
517017.00
 20
1144133.00
  0
VERTEX
  8
ROAD_CENTRELINE
 10
517025.00
 20
1144108.00
  0
VERTEX
  8
ROAD_CENTRELINE
 10
517028.00
 20
1144083.00
  0
VERTEX
  8
ROAD_CENTRELINE
 10
517028.00
 20
1144057.00
  0
SEQEND
  8
ROAD_CENTRELINE
  0
POLYLINE
  8
TRAIL
 66
     1
 62
     2
  6
DIVIDE2
  0
VERTEX
  8
TRAIL
 10
514028.00
 20
1144064.00
  0
VERTEX
  8
TRAIL
 10
514035.00
 20
1144023.00
  0
VERTEX
  8
TRAIL
 10
514065.00
 20
1143990.00
  0
VERTEX
  8
TRAIL
 10
514085.00
 20
1143987.00
  0
VERTEX
  8
TRAIL
 10
514119.00
 20
1143996.00
  0
VERTEX
  8
TRAIL
 10
514163.00
 20
1144007.00
  0
VERTEX
  8
TRAIL
 10
514196.00
 20
1144007.00
  0
VERTEX
  8
TRAIL
 10
514211.00
 20
1144006.00
  0
VERTEX
  8
TRAIL
 10
514220.00
 20
1144004.00
  0
SEQEND
  8
TRAIL
  0
POLYLINE
  8
TRAIL
 66
     1
 62
     2
  6
DIVIDE2
  0
VERTEX
  8
TRAIL
 10
514305.00
 20
1143991.00
  0
VERTEX
  8
TRAIL
 10
514330.00
 20
1143976.00
  0
VERTEX
  8
TRAIL
 10
514358.00
 20
1143973.00
  0
VERTEX
  8
TRAIL
 10
514386.00
 20
1143975.00
  0
VERTEX
  8
TRAIL
 10
514404.00
 20
1143975.00
  0
VERTEX
  8
TRAIL
 10
514419.00
 20
1143975.00
  0
SEQEND
  8
TRAIL
  0
POLYLINE
  8
ACCESSWAY_CENTRELINE
 66
     1
 62
     1
  6
DASHED
  0
VERTEX
  8
ACCESSWAY_CENTRELINE
 10
515886.00
 20
1144246.00
  0
VERTEX
  8
ACCESSWAY_CENTRELINE
 10
515882.00
 20
1144243.00
  0
VERTEX
  8
ACCESSWAY_CENTRELINE
 10
515849.00
 20
1144222.00
  0
VERTEX
  8
ACCESSWAY_CENTRELINE
 10
515764.00
 20
1144174.00
  0
VERTEX
  8
ACCESSWAY_CENTRELINE
 10
515728.00
 20
1144164.00
  0
VERTEX
  8
ACCESSWAY_CENTRELINE
 10
515643.00
 20
1144152.00
  0
VERTEX
  8
ACCESSWAY_CENTRELINE
 10
515590.00
 20
1144152.00
  0
VERTEX
  8
ACCESSWAY_CENTRELINE
 10
515551.00
 20
1144150.00
  0
VERTEX
  8
ACCESSWAY_CENTRELINE
 10
515528.00
 20
1144144.00
  0
VERTEX
  8
ACCESSWAY_CENTRELINE
 10
515511.00
 20
1144136.00
  0
VERTEX
  8
ACCESSWAY_CENTRELINE
 10
515489.00
 20
1144119.00
  0
VERTEX
  8
ACCESSWAY_CENTRELINE
 10
515472.00
 20
1144098.00
  0
VERTEX
  8
ACCESSWAY_CENTRELINE
 10
515438.00
 20
1144055.00
  0
VERTEX
  8
ACCESSWAY_CENTRELINE
 10
515405.00
 20
1144023.00
  0
VERTEX
  8
ACCESSWAY_CENTRELINE
 10
515387.00
 20
1144010.00
  0
VERTEX
  8
ACCESSWAY_CENTRELINE
 10
515341.00
 20
1143984.00
  0
VERTEX
  8
ACCESSWAY_CENTRELINE
 10
515307.00
 20
1143956.00
  0
SEQEND
  8
ACCESSWAY_CENTRELINE
  0
POLYLINE
  8
TRAIL
 66
     1
 62
     2
  6
DIVIDE2
  0
VERTEX
  8
TRAIL
 10
518112.00
 20
1143940.00
  0
VERTEX
  8
TRAIL
 10
518125.00
 20
1144002.00
  0
VERTEX
  8
TRAIL
 10
518138.00
 20
1144042.00
  0
VERTEX
  8
TRAIL
 10
518143.00
 20
1144091.00
  0
SEQEND
  8
TRAIL
  0
POLYLINE
  8
ACCESSWAY_CENTRELINE
 66
     1
 62
     1
  6
DASHED
  0
VERTEX
  8
ACCESSWAY_CENTRELINE
 10
517028.00
 20
1144057.00
  0
VERTEX
  8
ACCESSWAY_CENTRELINE
 10
517072.00
 20
1144056.00
  0
VERTEX
  8
ACCESSWAY_CENTRELINE
 10
517122.00
 20
1144070.00
  0
VERTEX
  8
ACCESSWAY_CENTRELINE
 10
517184.00
 20
1144091.00
  0
VERTEX
  8
ACCESSWAY_CENTRELINE
 10
517200.00
 20
1144093.00
  0
VERTEX
  8
ACCESSWAY_CENTRELINE
 10
517218.00
 20
1144090.00
  0
VERTEX
  8
ACCESSWAY_CENTRELINE
 10
517239.00
 20
1144083.00
  0
VERTEX
  8
ACCESSWAY_CENTRELINE
 10
517289.00
 20
1144071.00
  0
VERTEX
  8
ACCESSWAY_CENTRELINE
 10
517305.00
 20
1144071.00
  0
VERTEX
  8
ACCESSWAY_CENTRELINE
 10
517318.00
 20
1144072.00
  0
VERTEX
  8
ACCESSWAY_CENTRELINE
 10
517420.00
 20
1144078.00
  0
VERTEX
  8
ACCESSWAY_CENTRELINE
 10
517465.00
 20
1144074.00
  0
VERTEX
  8
ACCESSWAY_CENTRELINE
 10
517490.00
 20
1144068.00
  0
VERTEX
  8
ACCESSWAY_CENTRELINE
 10
517527.00
 20
1144060.00
  0
VERTEX
  8
ACCESSWAY_CENTRELINE
 10
517556.00
 20
1144049.00
  0
VERTEX
  8
ACCESSWAY_CENTRELINE
 10
517614.00
 20
1144026.00
  0
VERTEX
  8
ACCESSWAY_CENTRELINE
 10
517650.00
 20
1144016.00
  0
VERTEX
  8
ACCESSWAY_CENTRELINE
 10
517829.00
 20
1143983.00
  0
VERTEX
  8
ACCESSWAY_CENTRELINE
 10
517973.00
 20
1143963.00
  0
VERTEX
  8
ACCESSWAY_CENTRELINE
 10
518112.00
 20
1143940.00
  0
SEQEND
  8
ACCESSWAY_CENTRELINE
  0
POLYLINE
  8
TRAIL
 66
     1
 62
     2
  6
DIVIDE2
  0
VERTEX
  8
TRAIL
 10
514472.00
 20
1143975.00
  0
VERTEX
  8
TRAIL
 10
514497.00
 20
1143980.00
  0
VERTEX
  8
TRAIL
 10
514542.00
 20
1143981.00
  0
VERTEX
  8
TRAIL
 10
514559.00
 20
1143986.00
  0
VERTEX
  8
TRAIL
 10
514575.00
 20
1143995.00
  0
VERTEX
  8
TRAIL
 10
514631.00
 20
1144020.00
  0
VERTEX
  8
TRAIL
 10
514682.00
 20
1144016.00
  0
VERTEX
  8
TRAIL
 10
514731.00
 20
1143993.00
  0
VERTEX
  8
TRAIL
 10
514751.00
 20
1143975.00
  0
VERTEX
  8
TRAIL
 10
514800.00
 20
1143940.00
  0
VERTEX
  8
TRAIL
 10
514838.00
 20
1143939.00
  0
VERTEX
  8
TRAIL
 10
514858.00
 20
1143943.00
  0
VERTEX
  8
TRAIL
 10
514994.00
 20
1144038.00
  0
VERTEX
  8
TRAIL
 10
515055.00
 20
1144083.00
  0
VERTEX
  8
TRAIL
 10
515093.00
 20
1144104.00
  0
VERTEX
  8
TRAIL
 10
515118.00
 20
1144110.00
  0
VERTEX
  8
TRAIL
 10
515141.00
 20
1144110.00
  0
VERTEX
  8
TRAIL
 10
515164.00
 20
1144098.00
  0
VERTEX
  8
TRAIL
 10
515217.00
 20
1144071.00
  0
VERTEX
  8
TRAIL
 10
515237.00
 20
1144041.00
  0
VERTEX
  8
TRAIL
 10
515265.00
 20
1144003.00
  0
VERTEX
  8
TRAIL
 10
515307.00
 20
1143956.00
  0
SEQEND
  8
TRAIL
  0
POLYLINE
  8
ACCESSWAY_CENTRELINE
 66
     1
 62
     1
  6
DASHED
  0
VERTEX
  8
ACCESSWAY_CENTRELINE
 10
518112.00
 20
1143940.00
  0
VERTEX
  8
ACCESSWAY_CENTRELINE
 10
518197.00
 20
1143926.00
  0
VERTEX
  8
ACCESSWAY_CENTRELINE
 10
518243.00
 20
1143916.00
  0
SEQEND
  8
ACCESSWAY_CENTRELINE
  0
POLYLINE
  8
ACCESSWAY_CENTRELINE
 66
     1
 62
     1
  6
DASHED
  0
VERTEX
  8
ACCESSWAY_CENTRELINE
 10
518243.00
 20
1143916.00
  0
VERTEX
  8
ACCESSWAY_CENTRELINE
 10
518259.00
 20
1143913.00
  0
VERTEX
  8
ACCESSWAY_CENTRELINE
 10
518344.00
 20
1143899.00
  0
VERTEX
  8
ACCESSWAY_CENTRELINE
 10
518389.00
 20
1143894.00
  0
VERTEX
  8
ACCESSWAY_CENTRELINE
 10
518418.00
 20
1143882.00
  0
VERTEX
  8
ACCESSWAY_CENTRELINE
 10
518441.00
 20
1143871.00
  0
VERTEX
  8
ACCESSWAY_CENTRELINE
 10
518451.00
 20
1143858.00
  0
VERTEX
  8
ACCESSWAY_CENTRELINE
 10
518470.00
 20
1143834.00
  0
VERTEX
  8
ACCESSWAY_CENTRELINE
 10
518523.00
 20
1143784.00
  0
VERTEX
  8
ACCESSWAY_CENTRELINE
 10
518543.00
 20
1143770.00
  0
VERTEX
  8
ACCESSWAY_CENTRELINE
 10
518561.00
 20
1143760.00
  0
VERTEX
  8
ACCESSWAY_CENTRELINE
 10
518610.00
 20
1143749.00
  0
VERTEX
  8
ACCESSWAY_CENTRELINE
 10
518648.00
 20
1143745.00
  0
VERTEX
  8
ACCESSWAY_CENTRELINE
 10
518698.00
 20
1143739.00
  0
VERTEX
  8
ACCESSWAY_CENTRELINE
 10
518729.00
 20
1143737.00
  0
VERTEX
  8
ACCESSWAY_CENTRELINE
 10
518779.00
 20
1143742.00
  0
SEQEND
  8
ACCESSWAY_CENTRELINE
  0
POLYLINE
  8
TRANSMISSION_LINE_CROSS_COUNTRY
 66
     1
 62
     7
  6
DASHDOT
  0
VERTEX
  8
TRANSMISSION_LINE_CROSS_COUNTRY
 10
512021.00
 20
1144614.00
  0
VERTEX
  8
TRANSMISSION_LINE_CROSS_COUNTRY
 10
512259.00
 20
1144220.00
  0
VERTEX
  8
TRANSMISSION_LINE_CROSS_COUNTRY
 10
512550.00
 20
1143735.00
  0
SEQEND
  8
TRANSMISSION_LINE_CROSS_COUNTRY
  0
POLYLINE
  8
TRAIL
 66
     1
 62
     2
  6
DIVIDE2
  0
VERTEX
  8
TRAIL
 10
518243.00
 20
1143916.00
  0
VERTEX
  8
TRAIL
 10
518236.00
 20
1143864.00
  0
VERTEX
  8
TRAIL
 10
518227.00
 20
1143801.00
  0
VERTEX
  8
TRAIL
 10
518223.00
 20
1143769.00
  0
VERTEX
  8
TRAIL
 10
518236.00
 20
1143735.00
  0
VERTEX
  8
TRAIL
 10
518251.00
 20
1143717.00
  0
SEQEND
  8
TRAIL
  0
POLYLINE
  8
ACCESSWAY_CENTRELINE
 66
     1
 62
     1
  6
DASHED
  0
VERTEX
  8
ACCESSWAY_CENTRELINE
 10
518779.00
 20
1143742.00
  0
VERTEX
  8
ACCESSWAY_CENTRELINE
 10
518849.00
 20
1143750.00
  0
VERTEX
  8
ACCESSWAY_CENTRELINE
 10
518909.00
 20
1143749.00
  0
VERTEX
  8
ACCESSWAY_CENTRELINE
 10
518956.00
 20
1143758.00
  0
VERTEX
  8
ACCESSWAY_CENTRELINE
 10
518984.00
 20
1143762.00
  0
VERTEX
  8
ACCESSWAY_CENTRELINE
 10
519055.00
 20
1143762.00
  0
VERTEX
  8
ACCESSWAY_CENTRELINE
 10
519200.00
 20
1143766.00
  0
VERTEX
  8
ACCESSWAY_CENTRELINE
 10
519338.00
 20
1143760.00
  0
VERTEX
  8
ACCESSWAY_CENTRELINE
 10
519437.00
 20
1143751.00
  0
VERTEX
  8
ACCESSWAY_CENTRELINE
 10
519510.00
 20
1143743.00
  0
VERTEX
  8
ACCESSWAY_CENTRELINE
 10
519529.00
 20
1143731.00
  0
VERTEX
  8
ACCESSWAY_CENTRELINE
 10
519544.00
 20
1143719.00
  0
VERTEX
  8
ACCESSWAY_CENTRELINE
 10
519561.00
 20
1143708.00
  0
SEQEND
  8
ACCESSWAY_CENTRELINE
  0
POLYLINE
  8
TRAIL
 66
     1
 62
     2
  6
DIVIDE2
  0
VERTEX
  8
TRAIL
 10
517147.00
 20
1143547.00
  0
VERTEX
  8
TRAIL
 10
517188.00
 20
1143588.00
  0
VERTEX
  8
TRAIL
 10
517222.00
 20
1143601.00
  0
VERTEX
  8
TRAIL
 10
517244.00
 20
1143601.00
  0
VERTEX
  8
TRAIL
 10
517274.00
 20
1143601.00
  0
VERTEX
  8
TRAIL
 10
517311.00
 20
1143608.00
  0
VERTEX
  8
TRAIL
 10
517341.00
 20
1143618.00
  0
VERTEX
  8
TRAIL
 10
517360.00
 20
1143625.00
  0
SEQEND
  8
TRAIL
  0
POLYLINE
  8
ROAD_CENTRELINE
 66
     1
 62
     1
  6
CONTINUOUS
  0
VERTEX
  8
ROAD_CENTRELINE
 10
517028.00
 20
1144057.00
  0
VERTEX
  8
ROAD_CENTRELINE
 10
517026.00
 20
1144025.00
  0
VERTEX
  8
ROAD_CENTRELINE
 10
517007.00
 20
1143950.00
  0
VERTEX
  8
ROAD_CENTRELINE
 10
516987.00
 20
1143897.00
  0
VERTEX
  8
ROAD_CENTRELINE
 10
516977.00
 20
1143836.00
  0
VERTEX
  8
ROAD_CENTRELINE
 10
516977.00
 20
1143802.00
  0
VERTEX
  8
ROAD_CENTRELINE
 10
516981.00
 20
1143779.00
  0
VERTEX
  8
ROAD_CENTRELINE
 10
516990.00
 20
1143747.00
  0
VERTEX
  8
ROAD_CENTRELINE
 10
517019.00
 20
1143677.00
  0
VERTEX
  8
ROAD_CENTRELINE
 10
517045.00
 20
1143638.00
  0
VERTEX
  8
ROAD_CENTRELINE
 10
517083.00
 20
1143599.00
  0
VERTEX
  8
ROAD_CENTRELINE
 10
517136.00
 20
1143558.00
  0
VERTEX
  8
ROAD_CENTRELINE
 10
517147.00
 20
1143547.00
  0
SEQEND
  8
ROAD_CENTRELINE
  0
POLYLINE
  8
TRAIL
 66
     1
 62
     2
  6
DIVIDE2
  0
VERTEX
  8
TRAIL
 10
519561.00
 20
1143708.00
  0
VERTEX
  8
TRAIL
 10
519553.00
 20
1143666.00
  0
VERTEX
  8
TRAIL
 10
519560.00
 20
1143612.00
  0
VERTEX
  8
TRAIL
 10
519565.00
 20
1143555.00
  0
VERTEX
  8
TRAIL
 10
519570.00
 20
1143518.00
  0
SEQEND
  8
TRAIL
  0
POLYLINE
  8
ACCESSWAY_CENTRELINE
 66
     1
 62
     1
  6
DASHED
  0
VERTEX
  8
ACCESSWAY_CENTRELINE
 10
515307.00
 20
1143956.00
  0
VERTEX
  8
ACCESSWAY_CENTRELINE
 10
515289.00
 20
1143941.00
  0
VERTEX
  8
ACCESSWAY_CENTRELINE
 10
515250.00
 20
1143903.00
  0
VERTEX
  8
ACCESSWAY_CENTRELINE
 10
515197.00
 20
1143835.00
  0
VERTEX
  8
ACCESSWAY_CENTRELINE
 10
515178.00
 20
1143793.00
  0
VERTEX
  8
ACCESSWAY_CENTRELINE
 10
515169.00
 20
1143771.00
  0
VERTEX
  8
ACCESSWAY_CENTRELINE
 10
515167.00
 20
1143756.00
  0
VERTEX
  8
ACCESSWAY_CENTRELINE
 10
515167.00
 20
1143737.00
  0
VERTEX
  8
ACCESSWAY_CENTRELINE
 10
515174.00
 20
1143712.00
  0
VERTEX
  8
ACCESSWAY_CENTRELINE
 10
515190.00
 20
1143671.00
  0
VERTEX
  8
ACCESSWAY_CENTRELINE
 10
515197.00
 20
1143646.00
  0
VERTEX
  8
ACCESSWAY_CENTRELINE
 10
515197.00
 20
1143630.00
  0
VERTEX
  8
ACCESSWAY_CENTRELINE
 10
515187.00
 20
1143607.00
  0
VERTEX
  8
ACCESSWAY_CENTRELINE
 10
515168.00
 20
1143575.00
  0
VERTEX
  8
ACCESSWAY_CENTRELINE
 10
515140.00
 20
1143547.00
  0
VERTEX
  8
ACCESSWAY_CENTRELINE
 10
515133.00
 20
1143537.00
  0
VERTEX
  8
ACCESSWAY_CENTRELINE
 10
515128.00
 20
1143520.00
  0
VERTEX
  8
ACCESSWAY_CENTRELINE
 10
515124.00
 20
1143493.00
  0
VERTEX
  8
ACCESSWAY_CENTRELINE
 10
515113.00
 20
1143444.00
  0
VERTEX
  8
ACCESSWAY_CENTRELINE
 10
515105.00
 20
1143425.00
  0
VERTEX
  8
ACCESSWAY_CENTRELINE
 10
515092.00
 20
1143411.00
  0
VERTEX
  8
ACCESSWAY_CENTRELINE
 10
515074.00
 20
1143397.00
  0
VERTEX
  8
ACCESSWAY_CENTRELINE
 10
515049.00
 20
1143393.00
  0
VERTEX
  8
ACCESSWAY_CENTRELINE
 10
515012.00
 20
1143395.00
  0
SEQEND
  8
ACCESSWAY_CENTRELINE
  0
POLYLINE
  8
TRAIL
 66
     1
 62
     2
  6
DIVIDE2
  0
VERTEX
  8
TRAIL
 10
516271.00
 20
1143334.00
  0
VERTEX
  8
TRAIL
 10
516249.00
 20
1143335.00
  0
VERTEX
  8
TRAIL
 10
516241.00
 20
1143334.00
  0
VERTEX
  8
TRAIL
 10
516231.00
 20
1143332.00
  0
VERTEX
  8
TRAIL
 10
516223.00
 20
1143334.00
  0
VERTEX
  8
TRAIL
 10
516213.00
 20
1143339.00
  0
VERTEX
  8
TRAIL
 10
516210.00
 20
1143343.00
  0
VERTEX
  8
TRAIL
 10
516208.00
 20
1143356.00
  0
VERTEX
  8
TRAIL
 10
516209.00
 20
1143370.00
  0
VERTEX
  8
TRAIL
 10
516207.00
 20
1143385.00
  0
VERTEX
  8
TRAIL
 10
516194.00
 20
1143402.00
  0
VERTEX
  8
TRAIL
 10
516176.00
 20
1143404.00
  0
VERTEX
  8
TRAIL
 10
516149.00
 20
1143398.00
  0
VERTEX
  8
TRAIL
 10
516122.00
 20
1143393.00
  0
VERTEX
  8
TRAIL
 10
516105.00
 20
1143388.00
  0
VERTEX
  8
TRAIL
 10
516081.00
 20
1143384.00
  0
SEQEND
  8
TRAIL
  0
POLYLINE
  8
ROAD_CENTRELINE
 66
     1
 62
     1
  6
CONTINUOUS
  0
VERTEX
  8
ROAD_CENTRELINE
 10
517147.00
 20
1143547.00
  0
VERTEX
  8
ROAD_CENTRELINE
 10
517160.00
 20
1143533.00
  0
VERTEX
  8
ROAD_CENTRELINE
 10
517168.00
 20
1143519.00
  0
VERTEX
  8
ROAD_CENTRELINE
 10
517175.00
 20
1143501.00
  0
VERTEX
  8
ROAD_CENTRELINE
 10
517186.00
 20
1143460.00
  0
VERTEX
  8
ROAD_CENTRELINE
 10
517219.00
 20
1143352.00
  0
VERTEX
  8
ROAD_CENTRELINE
 10
517223.00
 20
1143328.00
  0
SEQEND
  8
ROAD_CENTRELINE
  0
POLYLINE
  8
ACCESSWAY_CENTRELINE
 66
     1
 62
     1
  6
DASHED
  0
VERTEX
  8
ACCESSWAY_CENTRELINE
 10
517223.00
 20
1143328.00
  0
VERTEX
  8
ACCESSWAY_CENTRELINE
 10
517167.00
 20
1143315.00
  0
VERTEX
  8
ACCESSWAY_CENTRELINE
 10
517084.00
 20
1143303.00
  0
VERTEX
  8
ACCESSWAY_CENTRELINE
 10
517005.00
 20
1143293.00
  0
VERTEX
  8
ACCESSWAY_CENTRELINE
 10
516895.00
 20
1143280.00
  0
VERTEX
  8
ACCESSWAY_CENTRELINE
 10
516855.00
 20
1143278.00
  0
VERTEX
  8
ACCESSWAY_CENTRELINE
 10
516830.00
 20
1143280.00
  0
VERTEX
  8
ACCESSWAY_CENTRELINE
 10
516816.00
 20
1143283.00
  0
VERTEX
  8
ACCESSWAY_CENTRELINE
 10
516713.00
 20
1143308.00
  0
VERTEX
  8
ACCESSWAY_CENTRELINE
 10
516605.00
 20
1143331.00
  0
VERTEX
  8
ACCESSWAY_CENTRELINE
 10
516540.00
 20
1143343.00
  0
VERTEX
  8
ACCESSWAY_CENTRELINE
 10
516490.00
 20
1143348.00
  0
VERTEX
  8
ACCESSWAY_CENTRELINE
 10
516459.00
 20
1143348.00
  0
VERTEX
  8
ACCESSWAY_CENTRELINE
 10
516451.00
 20
1143348.00
  0
VERTEX
  8
ACCESSWAY_CENTRELINE
 10
516397.00
 20
1143336.00
  0
VERTEX
  8
ACCESSWAY_CENTRELINE
 10
516351.00
 20
1143326.00
  0
VERTEX
  8
ACCESSWAY_CENTRELINE
 10
516326.00
 20
1143323.00
  0
VERTEX
  8
ACCESSWAY_CENTRELINE
 10
516303.00
 20
1143327.00
  0
VERTEX
  8
ACCESSWAY_CENTRELINE
 10
516293.00
 20
1143329.00
  0
VERTEX
  8
ACCESSWAY_CENTRELINE
 10
516271.00
 20
1143334.00
  0
SEQEND
  8
ACCESSWAY_CENTRELINE
  0
POLYLINE
  8
ACCESSWAY_CENTRELINE
 66
     1
 62
     1
  6
DASHED
  0
VERTEX
  8
ACCESSWAY_CENTRELINE
 10
518779.00
 20
1143742.00
  0
VERTEX
  8
ACCESSWAY_CENTRELINE
 10
518827.00
 20
1143676.00
  0
VERTEX
  8
ACCESSWAY_CENTRELINE
 10
518902.00
 20
1143570.00
  0
VERTEX
  8
ACCESSWAY_CENTRELINE
 10
519000.00
 20
1143449.00
  0
VERTEX
  8
ACCESSWAY_CENTRELINE
 10
519100.00
 20
1143328.00
  0
VERTEX
  8
ACCESSWAY_CENTRELINE
 10
519132.00
 20
1143286.00
  0
VERTEX
  8
ACCESSWAY_CENTRELINE
 10
519144.00
 20
1143267.00
  0
SEQEND
  8
ACCESSWAY_CENTRELINE
  0
POLYLINE
  8
TRAIL
 66
     1
 62
     2
  6
DIVIDE2
  0
VERTEX
  8
TRAIL
 10
512834.00
 20
1143263.00
  0
VERTEX
  8
TRAIL
 10
512824.00
 20
1143304.00
  0
VERTEX
  8
TRAIL
 10
512808.00
 20
1143410.00
  0
VERTEX
  8
TRAIL
 10
512808.00
 20
1143488.00
  0
VERTEX
  8
TRAIL
 10
512812.00
 20
1143522.00
  0
VERTEX
  8
TRAIL
 10
512861.00
 20
1143587.00
  0
VERTEX
  8
TRAIL
 10
512884.00
 20
1143607.00
  0
VERTEX
  8
TRAIL
 10
512889.00
 20
1143625.00
  0
VERTEX
  8
TRAIL
 10
512884.00
 20
1143647.00
  0
VERTEX
  8
TRAIL
 10
512874.00
 20
1143668.00
  0
VERTEX
  8
TRAIL
 10
512855.00
 20
1143688.00
  0
VERTEX
  8
TRAIL
 10
512776.00
 20
1143710.00
  0
VERTEX
  8
TRAIL
 10
512761.00
 20
1143716.00
  0
VERTEX
  8
TRAIL
 10
512747.00
 20
1143737.00
  0
VERTEX
  8
TRAIL
 10
512743.00
 20
1143754.00
  0
VERTEX
  8
TRAIL
 10
512689.00
 20
1143818.00
  0
VERTEX
  8
TRAIL
 10
512647.00
 20
1143811.00
  0
VERTEX
  8
TRAIL
 10
512621.00
 20
1143787.00
  0
VERTEX
  8
TRAIL
 10
512602.00
 20
1143764.00
  0
VERTEX
  8
TRAIL
 10
512573.00
 20
1143744.00
  0
VERTEX
  8
TRAIL
 10
512550.00
 20
1143735.00
  0
SEQEND
  8
TRAIL
  0
POLYLINE
  8
TRANSMISSION_LINE_CROSS_COUNTRY
 66
     1
 62
     7
  6
DASHDOT
  0
VERTEX
  8
TRANSMISSION_LINE_CROSS_COUNTRY
 10
512550.00
 20
1143735.00
  0
VERTEX
  8
TRANSMISSION_LINE_CROSS_COUNTRY
 10
512723.00
 20
1143448.00
  0
VERTEX
  8
TRANSMISSION_LINE_CROSS_COUNTRY
 10
512834.00
 20
1143263.00
  0
SEQEND
  8
TRANSMISSION_LINE_CROSS_COUNTRY
  0
POLYLINE
  8
ACCESSWAY_CENTRELINE
 66
     1
 62
     1
  6
DASHED
  0
VERTEX
  8
ACCESSWAY_CENTRELINE
 10
515012.00
 20
1143395.00
  0
VERTEX
  8
ACCESSWAY_CENTRELINE
 10
514999.00
 20
1143396.00
  0
VERTEX
  8
ACCESSWAY_CENTRELINE
 10
514963.00
 20
1143388.00
  0
VERTEX
  8
ACCESSWAY_CENTRELINE
 10
514939.00
 20
1143380.00
  0
VERTEX
  8
ACCESSWAY_CENTRELINE
 10
514892.00
 20
1143369.00
  0
VERTEX
  8
ACCESSWAY_CENTRELINE
 10
514811.00
 20
1143340.00
  0
VERTEX
  8
ACCESSWAY_CENTRELINE
 10
514777.00
 20
1143319.00
  0
VERTEX
  8
ACCESSWAY_CENTRELINE
 10
514720.00
 20
1143278.00
  0
VERTEX
  8
ACCESSWAY_CENTRELINE
 10
514663.00
 20
1143239.00
  0
VERTEX
  8
ACCESSWAY_CENTRELINE
 10
514603.00
 20
1143207.00
  0
VERTEX
  8
ACCESSWAY_CENTRELINE
 10
514588.00
 20
1143204.00
  0
VERTEX
  8
ACCESSWAY_CENTRELINE
 10
514568.00
 20
1143202.00
  0
VERTEX
  8
ACCESSWAY_CENTRELINE
 10
514537.00
 20
1143203.00
  0
VERTEX
  8
ACCESSWAY_CENTRELINE
 10
514516.00
 20
1143202.00
  0
VERTEX
  8
ACCESSWAY_CENTRELINE
 10
514500.00
 20
1143202.00
  0
SEQEND
  8
ACCESSWAY_CENTRELINE
  0
POLYLINE
  8
ACCESSWAY_CENTRELINE
 66
     1
 62
     1
  6
DASHED
  0
VERTEX
  8
ACCESSWAY_CENTRELINE
 10
519144.00
 20
1143267.00
  0
VERTEX
  8
ACCESSWAY_CENTRELINE
 10
519109.00
 20
1143214.00
  0
VERTEX
  8
ACCESSWAY_CENTRELINE
 10
519084.00
 20
1143187.00
  0
VERTEX
  8
ACCESSWAY_CENTRELINE
 10
519069.00
 20
1143179.00
  0
VERTEX
  8
ACCESSWAY_CENTRELINE
 10
519052.00
 20
1143173.00
  0
VERTEX
  8
ACCESSWAY_CENTRELINE
 10
519006.00
 20
1143162.00
  0
VERTEX
  8
ACCESSWAY_CENTRELINE
 10
518963.00
 20
1143147.00
  0
VERTEX
  8
ACCESSWAY_CENTRELINE
 10
518869.00
 20
1143093.00
  0
VERTEX
  8
ACCESSWAY_CENTRELINE
 10
518753.00
 20
1143051.00
  0
VERTEX
  8
ACCESSWAY_CENTRELINE
 10
518696.00
 20
1143035.00
  0
VERTEX
  8
ACCESSWAY_CENTRELINE
 10
518662.00
 20
1143023.00
  0
VERTEX
  8
ACCESSWAY_CENTRELINE
 10
518547.00
 20
1142997.00
  0
VERTEX
  8
ACCESSWAY_CENTRELINE
 10
518507.00
 20
1142989.00
  0
VERTEX
  8
ACCESSWAY_CENTRELINE
 10
518482.00
 20
1142985.00
  0
VERTEX
  8
ACCESSWAY_CENTRELINE
 10
518451.00
 20
1142983.00
  0
SEQEND
  8
ACCESSWAY_CENTRELINE
  0
POLYLINE
  8
ACCESSWAY_CENTRELINE
 66
     1
 62
     1
  6
DASHED
  0
VERTEX
  8
ACCESSWAY_CENTRELINE
 10
519144.00
 20
1143267.00
  0
VERTEX
  8
ACCESSWAY_CENTRELINE
 10
519153.00
 20
1143252.00
  0
VERTEX
  8
ACCESSWAY_CENTRELINE
 10
519162.00
 20
1143232.00
  0
VERTEX
  8
ACCESSWAY_CENTRELINE
 10
519165.00
 20
1143209.00
  0
VERTEX
  8
ACCESSWAY_CENTRELINE
 10
519167.00
 20
1143167.00
  0
VERTEX
  8
ACCESSWAY_CENTRELINE
 10
519153.00
 20
1142991.00
  0
VERTEX
  8
ACCESSWAY_CENTRELINE
 10
519139.00
 20
1142942.00
  0
VERTEX
  8
ACCESSWAY_CENTRELINE
 10
519125.00
 20
1142916.00
  0
SEQEND
  8
ACCESSWAY_CENTRELINE
  0
POLYLINE
  8
TRAIL
 66
     1
 62
     2
  6
DIVIDE2
  0
VERTEX
  8
TRAIL
 10
519125.00
 20
1142916.00
  0
VERTEX
  8
TRAIL
 10
519039.00
 20
1142921.00
  0
VERTEX
  8
TRAIL
 10
518958.00
 20
1142927.00
  0
SEQEND
  8
TRAIL
  0
POLYLINE
  8
TRANSMISSION_LINE_CROSS_COUNTRY
 66
     1
 62
     7
  6
DASHDOT
  0
VERTEX
  8
TRANSMISSION_LINE_CROSS_COUNTRY
 10
512834.00
 20
1143263.00
  0
VERTEX
  8
TRANSMISSION_LINE_CROSS_COUNTRY
 10
513033.00
 20
1142933.00
  0
VERTEX
  8
TRANSMISSION_LINE_CROSS_COUNTRY
 10
513046.00
 20
1142911.00
  0
SEQEND
  8
TRANSMISSION_LINE_CROSS_COUNTRY
  0
POLYLINE
  8
TRAIL
 66
     1
 62
     2
  6
DIVIDE2
  0
VERTEX
  8
TRAIL
 10
513046.00
 20
1142911.00
  0
VERTEX
  8
TRAIL
 10
513042.00
 20
1142914.00
  0
VERTEX
  8
TRAIL
 10
512989.00
 20
1142960.00
  0
VERTEX
  8
TRAIL
 10
512956.00
 20
1143017.00
  0
VERTEX
  8
TRAIL
 10
512920.00
 20
1143086.00
  0
VERTEX
  8
TRAIL
 10
512851.00
 20
1143194.00
  0
VERTEX
  8
TRAIL
 10
512834.00
 20
1143263.00
  0
SEQEND
  8
TRAIL
  0
POLYLINE
  8
ROAD_CENTRELINE
 66
     1
 62
     1
  6
CONTINUOUS
  0
VERTEX
  8
ROAD_CENTRELINE
 10
517223.00
 20
1143328.00
  0
VERTEX
  8
ROAD_CENTRELINE
 10
517238.00
 20
1143240.00
  0
VERTEX
  8
ROAD_CENTRELINE
 10
517271.00
 20
1143064.00
  0
VERTEX
  8
ROAD_CENTRELINE
 10
517281.00
 20
1143029.00
  0
VERTEX
  8
ROAD_CENTRELINE
 10
517318.00
 20
1142888.00
  0
VERTEX
  8
ROAD_CENTRELINE
 10
517336.00
 20
1142824.00
  0
VERTEX
  8
ROAD_CENTRELINE
 10
517351.00
 20
1142776.00
  0
VERTEX
  8
ROAD_CENTRELINE
 10
517361.00
 20
1142758.00
  0
VERTEX
  8
ROAD_CENTRELINE
 10
517369.00
 20
1142747.00
  0
VERTEX
  8
ROAD_CENTRELINE
 10
517391.00
 20
1142724.00
  0
SEQEND
  8
ROAD_CENTRELINE
  0
POLYLINE
  8
TRAIL
 66
     1
 62
     2
  6
DIVIDE2
  0
VERTEX
  8
TRAIL
 10
513237.00
 20
1142601.00
  0
VERTEX
  8
TRAIL
 10
513242.00
 20
1142611.00
  0
VERTEX
  8
TRAIL
 10
513258.00
 20
1142642.00
  0
VERTEX
  8
TRAIL
 10
513261.00
 20
1142662.00
  0
VERTEX
  8
TRAIL
 10
513252.00
 20
1142712.00
  0
VERTEX
  8
TRAIL
 10
513241.00
 20
1142750.00
  0
VERTEX
  8
TRAIL
 10
513215.00
 20
1142762.00
  0
VERTEX
  8
TRAIL
 10
513177.00
 20
1142775.00
  0
VERTEX
  8
TRAIL
 10
513123.00
 20
1142851.00
  0
VERTEX
  8
TRAIL
 10
513099.00
 20
1142881.00
  0
VERTEX
  8
TRAIL
 10
513074.00
 20
1142894.00
  0
VERTEX
  8
TRAIL
 10
513046.00
 20
1142911.00
  0
SEQEND
  8
TRAIL
  0
POLYLINE
  8
TRANSMISSION_LINE_CROSS_COUNTRY
 66
     1
 62
     7
  6
DASHDOT
  0
VERTEX
  8
TRANSMISSION_LINE_CROSS_COUNTRY
 10
513046.00
 20
1142911.00
  0
VERTEX
  8
TRANSMISSION_LINE_CROSS_COUNTRY
 10
513237.00
 20
1142601.00
  0
SEQEND
  8
TRANSMISSION_LINE_CROSS_COUNTRY
  0
POLYLINE
  8
TRAIL
 66
     1
 62
     2
  6
DIVIDE2
  0
VERTEX
  8
TRAIL
 10
513186.00
 20
1142496.00
  0
VERTEX
  8
TRAIL
 10
513189.00
 20
1142504.00
  0
VERTEX
  8
TRAIL
 10
513223.00
 20
1142571.00
  0
VERTEX
  8
TRAIL
 10
513237.00
 20
1142601.00
  0
SEQEND
  8
TRAIL
  0
POLYLINE
  8
TRANSMISSION_LINE_CROSS_COUNTRY
 66
     1
 62
     7
  6
DASHDOT
  0
VERTEX
  8
TRANSMISSION_LINE_CROSS_COUNTRY
 10
513186.00
 20
1142496.00
  0
VERTEX
  8
TRANSMISSION_LINE_CROSS_COUNTRY
 10
512927.00
 20
1142936.00
  0
VERTEX
  8
TRANSMISSION_LINE_CROSS_COUNTRY
 10
512514.00
 20
1143630.00
  0
VERTEX
  8
TRANSMISSION_LINE_CROSS_COUNTRY
 10
512005.00
 20
1144489.00
  0
VERTEX
  8
TRANSMISSION_LINE_CROSS_COUNTRY
 10
511960.00
 20
1144557.00
  0
SEQEND
  8
TRANSMISSION_LINE_CROSS_COUNTRY
  0
POLYLINE
  8
ROAD_CENTRELINE
 66
     1
 62
     1
  6
CONTINUOUS
  0
VERTEX
  8
ROAD_CENTRELINE
 10
517391.00
 20
1142724.00
  0
VERTEX
  8
ROAD_CENTRELINE
 10
517375.00
 20
1142707.00
  0
VERTEX
  8
ROAD_CENTRELINE
 10
517363.00
 20
1142699.00
  0
VERTEX
  8
ROAD_CENTRELINE
 10
517349.00
 20
1142694.00
  0
VERTEX
  8
ROAD_CENTRELINE
 10
517337.00
 20
1142691.00
  0
VERTEX
  8
ROAD_CENTRELINE
 10
517287.00
 20
1142686.00
  0
VERTEX
  8
ROAD_CENTRELINE
 10
517238.00
 20
1142693.00
  0
VERTEX
  8
ROAD_CENTRELINE
 10
517185.00
 20
1142704.00
  0
VERTEX
  8
ROAD_CENTRELINE
 10
517155.00
 20
1142709.00
  0
VERTEX
  8
ROAD_CENTRELINE
 10
517119.00
 20
1142715.00
  0
VERTEX
  8
ROAD_CENTRELINE
 10
517096.00
 20
1142714.00
  0
VERTEX
  8
ROAD_CENTRELINE
 10
517027.00
 20
1142704.00
  0
VERTEX
  8
ROAD_CENTRELINE
 10
516957.00
 20
1142694.00
  0
VERTEX
  8
ROAD_CENTRELINE
 10
516930.00
 20
1142692.00
  0
VERTEX
  8
ROAD_CENTRELINE
 10
516906.00
 20
1142694.00
  0
VERTEX
  8
ROAD_CENTRELINE
 10
516878.00
 20
1142694.00
  0
VERTEX
  8
ROAD_CENTRELINE
 10
516762.00
 20
1142704.00
  0
VERTEX
  8
ROAD_CENTRELINE
 10
516690.00
 20
1142706.00
  0
VERTEX
  8
ROAD_CENTRELINE
 10
516659.00
 20
1142705.00
  0
VERTEX
  8
ROAD_CENTRELINE
 10
516629.00
 20
1142703.00
  0
VERTEX
  8
ROAD_CENTRELINE
 10
516563.00
 20
1142701.00
  0
VERTEX
  8
ROAD_CENTRELINE
 10
516462.00
 20
1142694.00
  0
VERTEX
  8
ROAD_CENTRELINE
 10
516374.00
 20
1142698.00
  0
VERTEX
  8
ROAD_CENTRELINE
 10
516302.00
 20
1142698.00
  0
VERTEX
  8
ROAD_CENTRELINE
 10
516168.00
 20
1142705.00
  0
VERTEX
  8
ROAD_CENTRELINE
 10
516093.00
 20
1142703.00
  0
VERTEX
  8
ROAD_CENTRELINE
 10
516021.00
 20
1142703.00
  0
VERTEX
  8
ROAD_CENTRELINE
 10
515945.00
 20
1142696.00
  0
VERTEX
  8
ROAD_CENTRELINE
 10
515926.00
 20
1142692.00
  0
VERTEX
  8
ROAD_CENTRELINE
 10
515920.00
 20
1142690.00
  0
VERTEX
  8
ROAD_CENTRELINE
 10
515912.00
 20
1142680.00
  0
VERTEX
  8
ROAD_CENTRELINE
 10
515905.00
 20
1142667.00
  0
VERTEX
  8
ROAD_CENTRELINE
 10
515898.00
 20
1142623.00
  0
VERTEX
  8
ROAD_CENTRELINE
 10
515900.00
 20
1142520.00
  0
VERTEX
  8
ROAD_CENTRELINE
 10
515903.00
 20
1142436.00
  0
VERTEX
  8
ROAD_CENTRELINE
 10
515907.00
 20
1142385.00
  0
VERTEX
  8
ROAD_CENTRELINE
 10
515914.00
 20
1142338.00
  0
VERTEX
  8
ROAD_CENTRELINE
 10
515922.00
 20
1142310.00
  0
VERTEX
  8
ROAD_CENTRELINE
 10
515925.00
 20
1142295.00
  0
VERTEX
  8
ROAD_CENTRELINE
 10
515925.00
 20
1142287.00
  0
VERTEX
  8
ROAD_CENTRELINE
 10
515922.00
 20
1142278.00
  0
VERTEX
  8
ROAD_CENTRELINE
 10
515914.00
 20
1142270.00
  0
VERTEX
  8
ROAD_CENTRELINE
 10
515823.00
 20
1142229.00
  0
VERTEX
  8
ROAD_CENTRELINE
 10
515805.00
 20
1142222.00
  0
VERTEX
  8
ROAD_CENTRELINE
 10
515792.00
 20
1142213.00
  0
VERTEX
  8
ROAD_CENTRELINE
 10
515782.00
 20
1142203.00
  0
VERTEX
  8
ROAD_CENTRELINE
 10
515777.00
 20
1142194.00
  0
SEQEND
  8
ROAD_CENTRELINE
  0
POLYLINE
  8
TRANSMISSION_LINE_CROSS_COUNTRY
 66
     1
 62
     7
  6
DASHDOT
  0
VERTEX
  8
TRANSMISSION_LINE_CROSS_COUNTRY
 10
513237.00
 20
1142601.00
  0
VERTEX
  8
TRANSMISSION_LINE_CROSS_COUNTRY
 10
513346.00
 20
1142425.00
  0
VERTEX
  8
TRANSMISSION_LINE_CROSS_COUNTRY
 10
513502.00
 20
1142162.00
  0
SEQEND
  8
TRANSMISSION_LINE_CROSS_COUNTRY
  0
POLYLINE
  8
ROAD_CENTRELINE
 66
     1
 62
     1
  6
CONTINUOUS
  0
VERTEX
  8
ROAD_CENTRELINE
 10
514648.00
 20
1142157.00
  0
VERTEX
  8
ROAD_CENTRELINE
 10
514616.00
 20
1142156.00
  0
VERTEX
  8
ROAD_CENTRELINE
 10
514492.00
 20
1142159.00
  0
VERTEX
  8
ROAD_CENTRELINE
 10
514381.00
 20
1142156.00
  0
VERTEX
  8
ROAD_CENTRELINE
 10
514265.00
 20
1142161.00
  0
VERTEX
  8
ROAD_CENTRELINE
 10
514226.00
 20
1142159.00
  0
VERTEX
  8
ROAD_CENTRELINE
 10
514191.00
 20
1142160.00
  0
VERTEX
  8
ROAD_CENTRELINE
 10
514116.00
 20
1142176.00
  0
VERTEX
  8
ROAD_CENTRELINE
 10
514093.00
 20
1142179.00
  0
VERTEX
  8
ROAD_CENTRELINE
 10
514084.00
 20
1142179.00
  0
VERTEX
  8
ROAD_CENTRELINE
 10
514021.00
 20
1142174.00
  0
VERTEX
  8
ROAD_CENTRELINE
 10
514002.00
 20
1142178.00
  0
VERTEX
  8
ROAD_CENTRELINE
 10
513984.00
 20
1142185.00
  0
VERTEX
  8
ROAD_CENTRELINE
 10
513950.00
 20
1142207.00
  0
VERTEX
  8
ROAD_CENTRELINE
 10
513917.00
 20
1142224.00
  0
VERTEX
  8
ROAD_CENTRELINE
 10
513900.00
 20
1142228.00
  0
VERTEX
  8
ROAD_CENTRELINE
 10
513884.00
 20
1142228.00
  0
VERTEX
  8
ROAD_CENTRELINE
 10
513876.00
 20
1142226.00
  0
VERTEX
  8
ROAD_CENTRELINE
 10
513862.00
 20
1142222.00
  0
VERTEX
  8
ROAD_CENTRELINE
 10
513796.00
 20
1142196.00
  0
VERTEX
  8
ROAD_CENTRELINE
 10
513725.00
 20
1142177.00
  0
VERTEX
  8
ROAD_CENTRELINE
 10
513691.00
 20
1142169.00
  0
VERTEX
  8
ROAD_CENTRELINE
 10
513664.00
 20
1142167.00
  0
VERTEX
  8
ROAD_CENTRELINE
 10
513633.00
 20
1142170.00
  0
VERTEX
  8
ROAD_CENTRELINE
 10
513600.00
 20
1142171.00
  0
VERTEX
  8
ROAD_CENTRELINE
 10
513548.00
 20
1142174.00
  0
VERTEX
  8
ROAD_CENTRELINE
 10
513505.00
 20
1142164.00
  0
VERTEX
  8
ROAD_CENTRELINE
 10
513502.00
 20
1142162.00
  0
SEQEND
  8
ROAD_CENTRELINE
  0
POLYLINE
  8
ACCESSWAY_CENTRELINE
 66
     1
 62
     1
  6
DASHED
  0
VERTEX
  8
ACCESSWAY_CENTRELINE
 10
515012.00
 20
1143395.00
  0
VERTEX
  8
ACCESSWAY_CENTRELINE
 10
515005.00
 20
1143357.00
  0
VERTEX
  8
ACCESSWAY_CENTRELINE
 10
514990.00
 20
1143325.00
  0
VERTEX
  8
ACCESSWAY_CENTRELINE
 10
514983.00
 20
1143295.00
  0
VERTEX
  8
ACCESSWAY_CENTRELINE
 10
514982.00
 20
1143283.00
  0
VERTEX
  8
ACCESSWAY_CENTRELINE
 10
514983.00
 20
1143269.00
  0
VERTEX
  8
ACCESSWAY_CENTRELINE
 10
514993.00
 20
1143247.00
  0
VERTEX
  8
ACCESSWAY_CENTRELINE
 10
515020.00
 20
1143203.00
  0
VERTEX
  8
ACCESSWAY_CENTRELINE
 10
515052.00
 20
1143115.00
  0
VERTEX
  8
ACCESSWAY_CENTRELINE
 10
515069.00
 20
1143071.00
  0
VERTEX
  8
ACCESSWAY_CENTRELINE
 10
515077.00
 20
1143058.00
  0
VERTEX
  8
ACCESSWAY_CENTRELINE
 10
515082.00
 20
1143054.00
  0
VERTEX
  8
ACCESSWAY_CENTRELINE
 10
515093.00
 20
1143051.00
  0
VERTEX
  8
ACCESSWAY_CENTRELINE
 10
515130.00
 20
1143051.00
  0
VERTEX
  8
ACCESSWAY_CENTRELINE
 10
515146.00
 20
1143047.00
  0
VERTEX
  8
ACCESSWAY_CENTRELINE
 10
515159.00
 20
1143038.00
  0
VERTEX
  8
ACCESSWAY_CENTRELINE
 10
515167.00
 20
1143025.00
  0
VERTEX
  8
ACCESSWAY_CENTRELINE
 10
515174.00
 20
1143001.00
  0
VERTEX
  8
ACCESSWAY_CENTRELINE
 10
515172.00
 20
1142976.00
  0
VERTEX
  8
ACCESSWAY_CENTRELINE
 10
515163.00
 20
1142943.00
  0
VERTEX
  8
ACCESSWAY_CENTRELINE
 10
515153.00
 20
1142889.00
  0
VERTEX
  8
ACCESSWAY_CENTRELINE
 10
515161.00
 20
1142851.00
  0
VERTEX
  8
ACCESSWAY_CENTRELINE
 10
515168.00
 20
1142813.00
  0
VERTEX
  8
ACCESSWAY_CENTRELINE
 10
515179.00
 20
1142786.00
  0
VERTEX
  8
ACCESSWAY_CENTRELINE
 10
515181.00
 20
1142772.00
  0
VERTEX
  8
ACCESSWAY_CENTRELINE
 10
515178.00
 20
1142758.00
  0
VERTEX
  8
ACCESSWAY_CENTRELINE
 10
515170.00
 20
1142729.00
  0
VERTEX
  8
ACCESSWAY_CENTRELINE
 10
515152.00
 20
1142686.00
  0
VERTEX
  8
ACCESSWAY_CENTRELINE
 10
515101.00
 20
1142583.00
  0
VERTEX
  8
ACCESSWAY_CENTRELINE
 10
515078.00
 20
1142545.00
  0
VERTEX
  8
ACCESSWAY_CENTRELINE
 10
515047.00
 20
1142493.00
  0
VERTEX
  8
ACCESSWAY_CENTRELINE
 10
515035.00
 20
1142474.00
  0
VERTEX
  8
ACCESSWAY_CENTRELINE
 10
515035.00
 20
1142466.00
  0
VERTEX
  8
ACCESSWAY_CENTRELINE
 10
515038.00
 20
1142457.00
  0
VERTEX
  8
ACCESSWAY_CENTRELINE
 10
515045.00
 20
1142453.00
  0
VERTEX
  8
ACCESSWAY_CENTRELINE
 10
515064.00
 20
1142447.00
  0
VERTEX
  8
ACCESSWAY_CENTRELINE
 10
515106.00
 20
1142437.00
  0
VERTEX
  8
ACCESSWAY_CENTRELINE
 10
515179.00
 20
1142381.00
  0
VERTEX
  8
ACCESSWAY_CENTRELINE
 10
515228.00
 20
1142333.00
  0
VERTEX
  8
ACCESSWAY_CENTRELINE
 10
515237.00
 20
1142310.00
  0
VERTEX
  8
ACCESSWAY_CENTRELINE
 10
515237.00
 20
1142295.00
  0
VERTEX
  8
ACCESSWAY_CENTRELINE
 10
515230.00
 20
1142267.00
  0
VERTEX
  8
ACCESSWAY_CENTRELINE
 10
515211.00
 20
1142244.00
  0
VERTEX
  8
ACCESSWAY_CENTRELINE
 10
515186.00
 20
1142229.00
  0
VERTEX
  8
ACCESSWAY_CENTRELINE
 10
515170.00
 20
1142221.00
  0
VERTEX
  8
ACCESSWAY_CENTRELINE
 10
515151.00
 20
1142201.00
  0
VERTEX
  8
ACCESSWAY_CENTRELINE
 10
515146.00
 20
1142187.00
  0
VERTEX
  8
ACCESSWAY_CENTRELINE
 10
515143.00
 20
1142178.00
  0
VERTEX
  8
ACCESSWAY_CENTRELINE
 10
515136.00
 20
1142154.00
  0
SEQEND
  8
ACCESSWAY_CENTRELINE
  0
POLYLINE
  8
ROAD_CENTRELINE
 66
     1
 62
     1
  6
CONTINUOUS
  0
VERTEX
  8
ROAD_CENTRELINE
 10
515136.00
 20
1142154.00
  0
VERTEX
  8
ROAD_CENTRELINE
 10
515123.00
 20
1142157.00
  0
VERTEX
  8
ROAD_CENTRELINE
 10
515103.00
 20
1142158.00
  0
VERTEX
  8
ROAD_CENTRELINE
 10
514984.00
 20
1142154.00
  0
VERTEX
  8
ROAD_CENTRELINE
 10
514887.00
 20
1142158.00
  0
VERTEX
  8
ROAD_CENTRELINE
 10
514723.00
 20
1142159.00
  0
VERTEX
  8
ROAD_CENTRELINE
 10
514648.00
 20
1142157.00
  0
SEQEND
  8
ROAD_CENTRELINE
  0
POLYLINE
  8
ROAD_CENTRELINE
 66
     1
 62
     1
  6
CONTINUOUS
  0
VERTEX
  8
ROAD_CENTRELINE
 10
513502.00
 20
1142162.00
  0
VERTEX
  8
ROAD_CENTRELINE
 10
513475.00
 20
1142148.00
  0
VERTEX
  8
ROAD_CENTRELINE
 10
513438.00
 20
1142126.00
  0
VERTEX
  8
ROAD_CENTRELINE
 10
513416.00
 20
1142106.00
  0
SEQEND
  8
ROAD_CENTRELINE
  0
POLYLINE
  8
TRANSMISSION_LINE_CROSS_COUNTRY
 66
     1
 62
     7
  6
DASHDOT
  0
VERTEX
  8
TRANSMISSION_LINE_CROSS_COUNTRY
 10
513416.00
 20
1142106.00
  0
VERTEX
  8
TRANSMISSION_LINE_CROSS_COUNTRY
 10
513357.00
 20
1142204.00
  0
VERTEX
  8
TRANSMISSION_LINE_CROSS_COUNTRY
 10
513186.00
 20
1142496.00
  0
SEQEND
  8
TRANSMISSION_LINE_CROSS_COUNTRY
  0
POLYLINE
  8
TRAIL
 66
     1
 62
     2
  6
DIVIDE2
  0
VERTEX
  8
TRAIL
 10
514648.00
 20
1142157.00
  0
VERTEX
  8
TRAIL
 10
514642.00
 20
1142114.00
  0
VERTEX
  8
TRAIL
 10
514629.00
 20
1142073.00
  0
SEQEND
  8
TRAIL
  0
POLYLINE
  8
ROAD_CENTRELINE
 66
     1
 62
     1
  6
CONTINUOUS
  0
VERTEX
  8
ROAD_CENTRELINE
 10
515777.00
 20
1142194.00
  0
VERTEX
  8
ROAD_CENTRELINE
 10
515719.00
 20
1142206.00
  0
VERTEX
  8
ROAD_CENTRELINE
 10
515639.00
 20
1142207.00
  0
VERTEX
  8
ROAD_CENTRELINE
 10
515615.00
 20
1142203.00
  0
VERTEX
  8
ROAD_CENTRELINE
 10
515597.00
 20
1142199.00
  0
VERTEX
  8
ROAD_CENTRELINE
 10
515583.00
 20
1142193.00
  0
VERTEX
  8
ROAD_CENTRELINE
 10
515573.00
 20
1142187.00
  0
VERTEX
  8
ROAD_CENTRELINE
 10
515548.00
 20
1142165.00
  0
VERTEX
  8
ROAD_CENTRELINE
 10
515498.00
 20
1142115.00
  0
VERTEX
  8
ROAD_CENTRELINE
 10
515461.00
 20
1142087.00
  0
VERTEX
  8
ROAD_CENTRELINE
 10
515438.00
 20
1142074.00
  0
VERTEX
  8
ROAD_CENTRELINE
 10
515423.00
 20
1142068.00
  0
VERTEX
  8
ROAD_CENTRELINE
 10
515390.00
 20
1142060.00
  0
VERTEX
  8
ROAD_CENTRELINE
 10
515367.00
 20
1142061.00
  0
VERTEX
  8
ROAD_CENTRELINE
 10
515352.00
 20
1142063.00
  0
VERTEX
  8
ROAD_CENTRELINE
 10
515333.00
 20
1142070.00
  0
VERTEX
  8
ROAD_CENTRELINE
 10
515266.00
 20
1142110.00
  0
VERTEX
  8
ROAD_CENTRELINE
 10
515225.00
 20
1142128.00
  0
VERTEX
  8
ROAD_CENTRELINE
 10
515179.00
 20
1142144.00
  0
VERTEX
  8
ROAD_CENTRELINE
 10
515147.00
 20
1142151.00
  0
VERTEX
  8
ROAD_CENTRELINE
 10
515136.00
 20
1142154.00
  0
SEQEND
  8
ROAD_CENTRELINE
  0
POLYLINE
  8
TRAIL
 66
     1
 62
     2
  6
DIVIDE2
  0
VERTEX
  8
TRAIL
 10
513307.00
 20
1142031.00
  0
VERTEX
  8
TRAIL
 10
513300.00
 20
1142040.00
  0
VERTEX
  8
TRAIL
 10
513271.00
 20
1142084.00
  0
VERTEX
  8
TRAIL
 10
513260.00
 20
1142128.00
  0
VERTEX
  8
TRAIL
 10
513234.00
 20
1142153.00
  0
VERTEX
  8
TRAIL
 10
513168.00
 20
1142168.00
  0
VERTEX
  8
TRAIL
 10
513109.00
 20
1142173.00
  0
VERTEX
  8
TRAIL
 10
513084.00
 20
1142185.00
  0
VERTEX
  8
TRAIL
 10
513074.00
 20
1142195.00
  0
VERTEX
  8
TRAIL
 10
513076.00
 20
1142213.00
  0
VERTEX
  8
TRAIL
 10
513133.00
 20
1142356.00
  0
VERTEX
  8
TRAIL
 10
513186.00
 20
1142496.00
  0
SEQEND
  8
TRAIL
  0
POLYLINE
  8
ROAD_CENTRELINE
 66
     1
 62
     1
  6
CONTINUOUS
  0
VERTEX
  8
ROAD_CENTRELINE
 10
513416.00
 20
1142106.00
  0
VERTEX
  8
ROAD_CENTRELINE
 10
513401.00
 20
1142089.00
  0
VERTEX
  8
ROAD_CENTRELINE
 10
513382.00
 20
1142067.00
  0
VERTEX
  8
ROAD_CENTRELINE
 10
513360.00
 20
1142047.00
  0
VERTEX
  8
ROAD_CENTRELINE
 10
513341.00
 20
1142035.00
  0
VERTEX
  8
ROAD_CENTRELINE
 10
513328.00
 20
1142031.00
  0
VERTEX
  8
ROAD_CENTRELINE
 10
513307.00
 20
1142031.00
  0
SEQEND
  8
ROAD_CENTRELINE
  0
POLYLINE
  8
TRAIL
 66
     1
 62
     2
  6
DIVIDE2
  0
VERTEX
  8
TRAIL
 10
513307.00
 20
1142031.00
  0
VERTEX
  8
TRAIL
 10
513268.00
 20
1142005.00
  0
VERTEX
  8
TRAIL
 10
513240.00
 20
1141971.00
  0
VERTEX
  8
TRAIL
 10
513233.00
 20
1141931.00
  0
VERTEX
  8
TRAIL
 10
513228.00
 20
1141885.00
  0
VERTEX
  8
TRAIL
 10
513236.00
 20
1141854.00
  0
VERTEX
  8
TRAIL
 10
513247.00
 20
1141816.00
  0
VERTEX
  8
TRAIL
 10
513253.00
 20
1141805.00
  0
SEQEND
  8
TRAIL
  0
POLYLINE
  8
RAIL_LINE
 66
     1
 62
     6
  6
CONTINUOUS
  0
VERTEX
  8
RAIL_LINE
 10
511960.00
 20
1144557.00
  0
VERTEX
  8
RAIL_LINE
 10
511933.00
 20
1144529.00
  0
VERTEX
  8
RAIL_LINE
 10
511906.00
 20
1144478.00
  0
VERTEX
  8
RAIL_LINE
 10
511890.00
 20
1144432.00
  0
VERTEX
  8
RAIL_LINE
 10
511885.00
 20
1144401.00
  0
VERTEX
  8
RAIL_LINE
 10
511880.00
 20
1144373.00
  0
VERTEX
  8
RAIL_LINE
 10
511879.00
 20
1144345.00
  0
VERTEX
  8
RAIL_LINE
 10
511886.00
 20
1144284.00
  0
VERTEX
  8
RAIL_LINE
 10
511899.00
 20
1144218.00
  0
VERTEX
  8
RAIL_LINE
 10
511918.00
 20
1144165.00
  0
VERTEX
  8
RAIL_LINE
 10
511939.00
 20
1144130.00
  0
VERTEX
  8
RAIL_LINE
 10
512009.00
 20
1144026.00
  0
VERTEX
  8
RAIL_LINE
 10
512076.00
 20
1143918.00
  0
VERTEX
  8
RAIL_LINE
 10
512122.00
 20
1143812.00
  0
VERTEX
  8
RAIL_LINE
 10
512163.00
 20
1143708.00
  0
VERTEX
  8
RAIL_LINE
 10
512184.00
 20
1143621.00
  0
VERTEX
  8
RAIL_LINE
 10
512188.00
 20
1143567.00
  0
VERTEX
  8
RAIL_LINE
 10
512183.00
 20
1143478.00
  0
VERTEX
  8
RAIL_LINE
 10
512176.00
 20
1143381.00
  0
VERTEX
  8
RAIL_LINE
 10
512172.00
 20
1143308.00
  0
VERTEX
  8
RAIL_LINE
 10
512174.00
 20
1143273.00
  0
VERTEX
  8
RAIL_LINE
 10
512213.00
 20
1143156.00
  0
VERTEX
  8
RAIL_LINE
 10
512283.00
 20
1143007.00
  0
VERTEX
  8
RAIL_LINE
 10
512369.00
 20
1142829.00
  0
VERTEX
  8
RAIL_LINE
 10
512422.00
 20
1142712.00
  0
VERTEX
  8
RAIL_LINE
 10
512544.00
 20
1142465.00
  0
VERTEX
  8
RAIL_LINE
 10
512633.00
 20
1142274.00
  0
VERTEX
  8
RAIL_LINE
 10
512716.00
 20
1142100.00
  0
VERTEX
  8
RAIL_LINE
 10
512854.00
 20
1141802.00
  0
SEQEND
  8
RAIL_LINE
  0
POLYLINE
  8
ROAD_CENTRELINE
 66
     1
 62
     1
  6
CONTINUOUS
  0
VERTEX
  8
ROAD_CENTRELINE
 10
517391.00
 20
1142724.00
  0
VERTEX
  8
ROAD_CENTRELINE
 10
517514.00
 20
1142605.00
  0
VERTEX
  8
ROAD_CENTRELINE
 10
517532.00
 20
1142579.00
  0
VERTEX
  8
ROAD_CENTRELINE
 10
517544.00
 20
1142557.00
  0
VERTEX
  8
ROAD_CENTRELINE
 10
517563.00
 20
1142522.00
  0
VERTEX
  8
ROAD_CENTRELINE
 10
517608.00
 20
1142407.00
  0
VERTEX
  8
ROAD_CENTRELINE
 10
517659.00
 20
1142236.00
  0
VERTEX
  8
ROAD_CENTRELINE
 10
517676.00
 20
1142179.00
  0
VERTEX
  8
ROAD_CENTRELINE
 10
517704.00
 20
1142112.00
  0
VERTEX
  8
ROAD_CENTRELINE
 10
517734.00
 20
1142048.00
  0
VERTEX
  8
ROAD_CENTRELINE
 10
517767.00
 20
1141976.00
  0
VERTEX
  8
ROAD_CENTRELINE
 10
517781.00
 20
1141958.00
  0
VERTEX
  8
ROAD_CENTRELINE
 10
517792.00
 20
1141936.00
  0
VERTEX
  8
ROAD_CENTRELINE
 10
517796.00
 20
1141925.00
  0
VERTEX
  8
ROAD_CENTRELINE
 10
517804.00
 20
1141892.00
  0
VERTEX
  8
ROAD_CENTRELINE
 10
517811.00
 20
1141863.00
  0
VERTEX
  8
ROAD_CENTRELINE
 10
517845.00
 20
1141726.00
  0
VERTEX
  8
ROAD_CENTRELINE
 10
517864.00
 20
1141663.00
  0
VERTEX
  8
ROAD_CENTRELINE
 10
517874.00
 20
1141641.00
  0
VERTEX
  8
ROAD_CENTRELINE
 10
517898.00
 20
1141596.00
  0
VERTEX
  8
ROAD_CENTRELINE
 10
517915.00
 20
1141569.00
  0
VERTEX
  8
ROAD_CENTRELINE
 10
517931.00
 20
1141550.00
  0
VERTEX
  8
ROAD_CENTRELINE
 10
517942.00
 20
1141542.00
  0
VERTEX
  8
ROAD_CENTRELINE
 10
517959.00
 20
1141531.00
  0
VERTEX
  8
ROAD_CENTRELINE
 10
517998.00
 20
1141520.00
  0
VERTEX
  8
ROAD_CENTRELINE
 10
518085.00
 20
1141513.00
  0
VERTEX
  8
ROAD_CENTRELINE
 10
518167.00
 20
1141494.00
  0
VERTEX
  8
ROAD_CENTRELINE
 10
518200.00
 20
1141480.00
  0
VERTEX
  8
ROAD_CENTRELINE
 10
518222.00
 20
1141469.00
  0
VERTEX
  8
ROAD_CENTRELINE
 10
518234.00
 20
1141457.00
  0
VERTEX
  8
ROAD_CENTRELINE
 10
518257.00
 20
1141441.00
  0
VERTEX
  8
ROAD_CENTRELINE
 10
518295.00
 20
1141402.00
  0
VERTEX
  8
ROAD_CENTRELINE
 10
518318.00
 20
1141380.00
  0
SEQEND
  8
ROAD_CENTRELINE
  0
POLYLINE
  8
TRAIL
 66
     1
 62
     2
  6
DIVIDE2
  0
VERTEX
  8
TRAIL
 10
518606.00
 20
1141335.00
  0
VERTEX
  8
TRAIL
 10
518607.00
 20
1141378.00
  0
VERTEX
  8
TRAIL
 10
518611.00
 20
1141420.00
  0
VERTEX
  8
TRAIL
 10
518617.00
 20
1141434.00
  0
VERTEX
  8
TRAIL
 10
518625.00
 20
1141444.00
  0
VERTEX
  8
TRAIL
 10
518630.00
 20
1141448.00
  0
SEQEND
  8
TRAIL
  0
POLYLINE
  8
ACCESSWAY_CENTRELINE
 66
     1
 62
     1
  6
DASHED
  0
VERTEX
  8
ACCESSWAY_CENTRELINE
 10
518671.00
 20
1141334.00
  0
VERTEX
  8
ACCESSWAY_CENTRELINE
 10
518661.00
 20
1141332.00
  0
VERTEX
  8
ACCESSWAY_CENTRELINE
 10
518616.00
 20
1141335.00
  0
VERTEX
  8
ACCESSWAY_CENTRELINE
 10
518606.00
 20
1141335.00
  0
SEQEND
  8
ACCESSWAY_CENTRELINE
  0
POLYLINE
  8
ACCESSWAY_CENTRELINE
 66
     1
 62
     1
  6
DASHED
  0
VERTEX
  8
ACCESSWAY_CENTRELINE
 10
518606.00
 20
1141335.00
  0
VERTEX
  8
ACCESSWAY_CENTRELINE
 10
518584.00
 20
1141333.00
  0
VERTEX
  8
ACCESSWAY_CENTRELINE
 10
518495.00
 20
1141330.00
  0
VERTEX
  8
ACCESSWAY_CENTRELINE
 10
518462.00
 20
1141330.00
  0
VERTEX
  8
ACCESSWAY_CENTRELINE
 10
518404.00
 20
1141322.00
  0
SEQEND
  8
ACCESSWAY_CENTRELINE
  0
POLYLINE
  8
ROAD_CENTRELINE
 66
     1
 62
     1
  6
CONTINUOUS
  0
VERTEX
  8
ROAD_CENTRELINE
 10
518318.00
 20
1141380.00
  0
VERTEX
  8
ROAD_CENTRELINE
 10
518341.00
 20
1141358.00
  0
VERTEX
  8
ROAD_CENTRELINE
 10
518383.00
 20
1141328.00
  0
VERTEX
  8
ROAD_CENTRELINE
 10
518404.00
 20
1141322.00
  0
SEQEND
  8
ROAD_CENTRELINE
  0
POLYLINE
  8
ROAD_CENTRELINE
 66
     1
 62
     1
  6
CONTINUOUS
  0
VERTEX
  8
ROAD_CENTRELINE
 10
518404.00
 20
1141322.00
  0
VERTEX
  8
ROAD_CENTRELINE
 10
518427.00
 20
1141315.00
  0
VERTEX
  8
ROAD_CENTRELINE
 10
518442.00
 20
1141308.00
  0
SEQEND
  8
ROAD_CENTRELINE
  0
POLYLINE
  8
ACCESSWAY_CENTRELINE
 66
     1
 62
     1
  6
DASHED
  0
VERTEX
  8
ACCESSWAY_CENTRELINE
 10
518318.00
 20
1141380.00
  0
VERTEX
  8
ACCESSWAY_CENTRELINE
 10
518282.00
 20
1141324.00
  0
VERTEX
  8
ACCESSWAY_CENTRELINE
 10
518234.00
 20
1141246.00
  0
VERTEX
  8
ACCESSWAY_CENTRELINE
 10
518206.00
 20
1141214.00
  0
VERTEX
  8
ACCESSWAY_CENTRELINE
 10
518199.00
 20
1141208.00
  0
VERTEX
  8
ACCESSWAY_CENTRELINE
 10
518182.00
 20
1141200.00
  0
SEQEND
  8
ACCESSWAY_CENTRELINE
  0
POLYLINE
  8
ACCESSWAY_CENTRELINE
 66
     1
 62
     1
  6
DASHED
  0
VERTEX
  8
ACCESSWAY_CENTRELINE
 10
518182.00
 20
1141200.00
  0
VERTEX
  8
ACCESSWAY_CENTRELINE
 10
518179.00
 20
1141199.00
  0
VERTEX
  8
ACCESSWAY_CENTRELINE
 10
518173.00
 20
1141196.00
  0
SEQEND
  8
ACCESSWAY_CENTRELINE
  0
POLYLINE
  8
TRAIL
 66
     1
 62
     2
  6
DIVIDE2
  0
VERTEX
  8
TRAIL
 10
518442.00
 20
1141308.00
  0
VERTEX
  8
TRAIL
 10
518438.00
 20
1141247.00
  0
VERTEX
  8
TRAIL
 10
518438.00
 20
1141211.00
  0
VERTEX
  8
TRAIL
 10
518436.00
 20
1141185.00
  0
SEQEND
  8
TRAIL
  0
POLYLINE
  8
TRAIL
 66
     1
 62
     2
  6
DIVIDE2
  0
VERTEX
  8
TRAIL
 10
511192.00
 20
1141184.00
  0
VERTEX
  8
TRAIL
 10
511243.00
 20
1141319.00
  0
VERTEX
  8
TRAIL
 10
511295.00
 20
1141426.00
  0
VERTEX
  8
TRAIL
 10
511420.00
 20
1141603.00
  0
VERTEX
  8
TRAIL
 10
511494.00
 20
1141703.00
  0
VERTEX
  8
TRAIL
 10
511529.00
 20
1141758.00
  0
VERTEX
  8
TRAIL
 10
511536.00
 20
1141784.00
  0
VERTEX
  8
TRAIL
 10
511537.00
 20
1141815.00
  0
VERTEX
  8
TRAIL
 10
511547.00
 20
1141842.00
  0
VERTEX
  8
TRAIL
 10
511614.00
 20
1141933.00
  0
VERTEX
  8
TRAIL
 10
511639.00
 20
1141961.00
  0
VERTEX
  8
TRAIL
 10
511657.00
 20
1141983.00
  0
SEQEND
  8
TRAIL
  0
POLYLINE
  8
ACCESSWAY_CENTRELINE
 66
     1
 62
     1
  6
DASHED
  0
VERTEX
  8
ACCESSWAY_CENTRELINE
 10
518173.00
 20
1141196.00
  0
VERTEX
  8
ACCESSWAY_CENTRELINE
 10
518147.00
 20
1141206.00
  0
VERTEX
  8
ACCESSWAY_CENTRELINE
 10
518108.00
 20
1141212.00
  0
VERTEX
  8
ACCESSWAY_CENTRELINE
 10
518071.00
 20
1141207.00
  0
VERTEX
  8
ACCESSWAY_CENTRELINE
 10
518042.00
 20
1141205.00
  0
VERTEX
  8
ACCESSWAY_CENTRELINE
 10
518029.00
 20
1141206.00
  0
VERTEX
  8
ACCESSWAY_CENTRELINE
 10
518003.00
 20
1141210.00
  0
VERTEX
  8
ACCESSWAY_CENTRELINE
 10
517938.00
 20
1141231.00
  0
VERTEX
  8
ACCESSWAY_CENTRELINE
 10
517914.00
 20
1141231.00
  0
VERTEX
  8
ACCESSWAY_CENTRELINE
 10
517903.00
 20
1141230.00
  0
VERTEX
  8
ACCESSWAY_CENTRELINE
 10
517866.00
 20
1141219.00
  0
VERTEX
  8
ACCESSWAY_CENTRELINE
 10
517799.00
 20
1141181.00
  0
VERTEX
  8
ACCESSWAY_CENTRELINE
 10
517759.00
 20
1141160.00
  0
VERTEX
  8
ACCESSWAY_CENTRELINE
 10
517735.00
 20
1141153.00
  0
VERTEX
  8
ACCESSWAY_CENTRELINE
 10
517687.00
 20
1141153.00
  0
VERTEX
  8
ACCESSWAY_CENTRELINE
 10
517653.00
 20
1141153.00
  0
VERTEX
  8
ACCESSWAY_CENTRELINE
 10
517638.00
 20
1141155.00
  0
VERTEX
  8
ACCESSWAY_CENTRELINE
 10
517623.00
 20
1141158.00
  0
SEQEND
  8
ACCESSWAY_CENTRELINE
  0
POLYLINE
  8
TRAIL
 66
     1
 62
     2
  6
DIVIDE2
  0
VERTEX
  8
TRAIL
 10
511192.00
 20
1141184.00
  0
VERTEX
  8
TRAIL
 10
511259.00
 20
1141145.00
  0
VERTEX
  8
TRAIL
 10
511284.00
 20
1141126.00
  0
SEQEND
  8
TRAIL
  0
POLYLINE
  8
ACCESSWAY_CENTRELINE
 66
     1
 62
     1
  6
DASHED
  0
VERTEX
  8
ACCESSWAY_CENTRELINE
 10
518671.00
 20
1141334.00
  0
VERTEX
  8
ACCESSWAY_CENTRELINE
 10
518677.00
 20
1141275.00
  0
VERTEX
  8
ACCESSWAY_CENTRELINE
 10
518674.00
 20
1141203.00
  0
VERTEX
  8
ACCESSWAY_CENTRELINE
 10
518674.00
 20
1141162.00
  0
VERTEX
  8
ACCESSWAY_CENTRELINE
 10
518669.00
 20
1141115.00
  0
SEQEND
  8
ACCESSWAY_CENTRELINE
  0
POLYLINE
  8
ROAD_CENTRELINE
 66
     1
 62
     1
  6
CONTINUOUS
  0
VERTEX
  8
ROAD_CENTRELINE
 10
518442.00
 20
1141308.00
  0
VERTEX
  8
ROAD_CENTRELINE
 10
518454.00
 20
1141303.00
  0
VERTEX
  8
ROAD_CENTRELINE
 10
518523.00
 20
1141284.00
  0
VERTEX
  8
ROAD_CENTRELINE
 10
518542.00
 20
1141273.00
  0
VERTEX
  8
ROAD_CENTRELINE
 10
518559.00
 20
1141262.00
  0
VERTEX
  8
ROAD_CENTRELINE
 10
518580.00
 20
1141244.00
  0
VERTEX
  8
ROAD_CENTRELINE
 10
518627.00
 20
1141199.00
  0
VERTEX
  8
ROAD_CENTRELINE
 10
518646.00
 20
1141164.00
  0
VERTEX
  8
ROAD_CENTRELINE
 10
518660.00
 20
1141140.00
  0
VERTEX
  8
ROAD_CENTRELINE
 10
518669.00
 20
1141115.00
  0
SEQEND
  8
ROAD_CENTRELINE
  0
POLYLINE
  8
TRAIL
 66
     1
 62
     2
  6
DIVIDE2
  0
VERTEX
  8
TRAIL
 10
518182.00
 20
1141200.00
  0
VERTEX
  8
TRAIL
 10
518200.00
 20
1141168.00
  0
VERTEX
  8
TRAIL
 10
518206.00
 20
1141116.00
  0
VERTEX
  8
TRAIL
 10
518201.00
 20
1141076.00
  0
VERTEX
  8
TRAIL
 10
518181.00
 20
1141040.00
  0
VERTEX
  8
TRAIL
 10
518176.00
 20
1141033.00
  0
SEQEND
  8
TRAIL
  0
POLYLINE
  8
ACCESSWAY_CENTRELINE
 66
     1
 62
     1
  6
DASHED
  0
VERTEX
  8
ACCESSWAY_CENTRELINE
 10
511197.00
 20
1141004.00
  0
VERTEX
  8
ACCESSWAY_CENTRELINE
 10
511199.00
 20
1141008.00
  0
VERTEX
  8
ACCESSWAY_CENTRELINE
 10
511245.00
 20
1141078.00
  0
VERTEX
  8
ACCESSWAY_CENTRELINE
 10
511267.00
 20
1141113.00
  0
VERTEX
  8
ACCESSWAY_CENTRELINE
 10
511279.00
 20
1141123.00
  0
VERTEX
  8
ACCESSWAY_CENTRELINE
 10
511284.00
 20
1141126.00
  0
SEQEND
  8
ACCESSWAY_CENTRELINE
  0
POLYLINE
  8
TRAIL
 66
     1
 62
     2
  6
DIVIDE2
  0
VERTEX
  8
TRAIL
 10
511197.00
 20
1141004.00
  0
VERTEX
  8
TRAIL
 10
511192.00
 20
1141027.00
  0
VERTEX
  8
TRAIL
 10
511182.00
 20
1141092.00
  0
VERTEX
  8
TRAIL
 10
511182.00
 20
1141139.00
  0
VERTEX
  8
TRAIL
 10
511190.00
 20
1141180.00
  0
VERTEX
  8
TRAIL
 10
511192.00
 20
1141184.00
  0
SEQEND
  8
TRAIL
  0
POLYLINE
  8
TRAIL
 66
     1
 62
     2
  6
DIVIDE2
  0
VERTEX
  8
TRAIL
 10
511284.00
 20
1141126.00
  0
VERTEX
  8
TRAIL
 10
511375.00
 20
1141071.00
  0
VERTEX
  8
TRAIL
 10
511495.00
 20
1140986.00
  0
VERTEX
  8
TRAIL
 10
511537.00
 20
1140961.00
  0
VERTEX
  8
TRAIL
 10
511586.00
 20
1140928.00
  0
VERTEX
  8
TRAIL
 10
511634.00
 20
1140898.00
  0
VERTEX
  8
TRAIL
 10
511676.00
 20
1140875.00
  0
VERTEX
  8
TRAIL
 10
511681.00
 20
1140875.00
  0
SEQEND
  8
TRAIL
  0
POLYLINE
  8
TRAIL
 66
     1
 62
     2
  6
DIVIDE2
  0
VERTEX
  8
TRAIL
 10
511681.00
 20
1140875.00
  0
VERTEX
  8
TRAIL
 10
511744.00
 20
1140867.00
  0
VERTEX
  8
TRAIL
 10
511781.00
 20
1140873.00
  0
VERTEX
  8
TRAIL
 10
511884.00
 20
1140920.00
  0
VERTEX
  8
TRAIL
 10
511910.00
 20
1140928.00
  0
VERTEX
  8
TRAIL
 10
511944.00
 20
1140929.00
  0
VERTEX
  8
TRAIL
 10
512005.00
 20
1140921.00
  0
VERTEX
  8
TRAIL
 10
512033.00
 20
1140909.00
  0
VERTEX
  8
TRAIL
 10
512099.00
 20
1140882.00
  0
VERTEX
  8
TRAIL
 10
512138.00
 20
1140874.00
  0
VERTEX
  8
TRAIL
 10
512177.00
 20
1140880.00
  0
VERTEX
  8
TRAIL
 10
512218.00
 20
1140899.00
  0
VERTEX
  8
TRAIL
 10
512248.00
 20
1140916.00
  0
VERTEX
  8
TRAIL
 10
512284.00
 20
1140960.00
  0
VERTEX
  8
TRAIL
 10
512305.00
 20
1141012.00
  0
VERTEX
  8
TRAIL
 10
512327.00
 20
1141065.00
  0
VERTEX
  8
TRAIL
 10
512336.00
 20
1141098.00
  0
VERTEX
  8
TRAIL
 10
512342.00
 20
1141127.00
  0
VERTEX
  8
TRAIL
 10
512347.00
 20
1141163.00
  0
SEQEND
  8
TRAIL
  0
POLYLINE
  8
ROAD_CENTRELINE
 66
     1
 62
     1
  6
CONTINUOUS
  0
VERTEX
  8
ROAD_CENTRELINE
 10
515777.00
 20
1142194.00
  0
VERTEX
  8
ROAD_CENTRELINE
 10
515771.00
 20
1142184.00
  0
VERTEX
  8
ROAD_CENTRELINE
 10
515748.00
 20
1142107.00
  0
VERTEX
  8
ROAD_CENTRELINE
 10
515747.00
 20
1142097.00
  0
VERTEX
  8
ROAD_CENTRELINE
 10
515751.00
 20
1142073.00
  0
VERTEX
  8
ROAD_CENTRELINE
 10
515761.00
 20
1142051.00
  0
VERTEX
  8
ROAD_CENTRELINE
 10
515787.00
 20
1142024.00
  0
VERTEX
  8
ROAD_CENTRELINE
 10
515795.00
 20
1142012.00
  0
VERTEX
  8
ROAD_CENTRELINE
 10
515799.00
 20
1142003.00
  0
VERTEX
  8
ROAD_CENTRELINE
 10
515800.00
 20
1141977.00
  0
VERTEX
  8
ROAD_CENTRELINE
 10
515801.00
 20
1141945.00
  0
VERTEX
  8
ROAD_CENTRELINE
 10
515806.00
 20
1141900.00
  0
VERTEX
  8
ROAD_CENTRELINE
 10
515810.00
 20
1141881.00
  0
VERTEX
  8
ROAD_CENTRELINE
 10
515808.00
 20
1141858.00
  0
VERTEX
  8
ROAD_CENTRELINE
 10
515798.00
 20
1141713.00
  0
VERTEX
  8
ROAD_CENTRELINE
 10
515779.00
 20
1141577.00
  0
VERTEX
  8
ROAD_CENTRELINE
 10
515757.00
 20
1141406.00
  0
VERTEX
  8
ROAD_CENTRELINE
 10
515739.00
 20
1141289.00
  0
VERTEX
  8
ROAD_CENTRELINE
 10
515734.00
 20
1141269.00
  0
VERTEX
  8
ROAD_CENTRELINE
 10
515726.00
 20
1141241.00
  0
VERTEX
  8
ROAD_CENTRELINE
 10
515716.00
 20
1141194.00
  0
VERTEX
  8
ROAD_CENTRELINE
 10
515716.00
 20
1141176.00
  0
VERTEX
  8
ROAD_CENTRELINE
 10
515717.00
 20
1141144.00
  0
VERTEX
  8
ROAD_CENTRELINE
 10
515723.00
 20
1141092.00
  0
VERTEX
  8
ROAD_CENTRELINE
 10
515735.00
 20
1141067.00
  0
VERTEX
  8
ROAD_CENTRELINE
 10
515743.00
 20
1141048.00
  0
VERTEX
  8
ROAD_CENTRELINE
 10
515747.00
 20
1141038.00
  0
VERTEX
  8
ROAD_CENTRELINE
 10
515750.00
 20
1141031.00
  0
VERTEX
  8
ROAD_CENTRELINE
 10
515748.00
 20
1141007.00
  0
VERTEX
  8
ROAD_CENTRELINE
 10
515737.00
 20
1140979.00
  0
VERTEX
  8
ROAD_CENTRELINE
 10
515721.00
 20
1140918.00
  0
VERTEX
  8
ROAD_CENTRELINE
 10
515715.00
 20
1140874.00
  0
VERTEX
  8
ROAD_CENTRELINE
 10
515715.00
 20
1140864.00
  0
SEQEND
  8
ROAD_CENTRELINE
  0
POLYLINE
  8
ROAD_CENTRELINE
 66
     1
 62
     1
  6
CONTINUOUS
  0
VERTEX
  8
ROAD_CENTRELINE
 10
515715.00
 20
1140864.00
  0
VERTEX
  8
ROAD_CENTRELINE
 10
515715.00
 20
1140855.00
  0
SEQEND
  8
ROAD_CENTRELINE
  0
POLYLINE
  8
ROAD_CENTRELINE
 66
     1
 62
     1
  6
CONTINUOUS
  0
VERTEX
  8
ROAD_CENTRELINE
 10
510661.00
 20
1140845.00
  0
VERTEX
  8
ROAD_CENTRELINE
 10
510658.00
 20
1140848.00
  0
VERTEX
  8
ROAD_CENTRELINE
 10
510642.00
 20
1140867.00
  0
VERTEX
  8
ROAD_CENTRELINE
 10
510611.00
 20
1140914.00
  0
VERTEX
  8
ROAD_CENTRELINE
 10
510599.00
 20
1140936.00
  0
SEQEND
  8
ROAD_CENTRELINE
  0
POLYLINE
  8
ACCESSWAY_CENTRELINE
 66
     1
 62
     1
  6
DASHED
  0
VERTEX
  8
ACCESSWAY_CENTRELINE
 10
515715.00
 20
1140855.00
  0
VERTEX
  8
ACCESSWAY_CENTRELINE
 10
515666.00
 20
1140845.00
  0
VERTEX
  8
ACCESSWAY_CENTRELINE
 10
515540.00
 20
1140804.00
  0
VERTEX
  8
ACCESSWAY_CENTRELINE
 10
515517.00
 20
1140799.00
  0
VERTEX
  8
ACCESSWAY_CENTRELINE
 10
515501.00
 20
1140802.00
  0
VERTEX
  8
ACCESSWAY_CENTRELINE
 10
515473.00
 20
1140817.00
  0
VERTEX
  8
ACCESSWAY_CENTRELINE
 10
515458.00
 20
1140822.00
  0
VERTEX
  8
ACCESSWAY_CENTRELINE
 10
515446.00
 20
1140822.00
  0
VERTEX
  8
ACCESSWAY_CENTRELINE
 10
515424.00
 20
1140819.00
  0
VERTEX
  8
ACCESSWAY_CENTRELINE
 10
515381.00
 20
1140813.00
  0
VERTEX
  8
ACCESSWAY_CENTRELINE
 10
515367.00
 20
1140813.00
  0
VERTEX
  8
ACCESSWAY_CENTRELINE
 10
515356.00
 20
1140818.00
  0
VERTEX
  8
ACCESSWAY_CENTRELINE
 10
515347.00
 20
1140829.00
  0
VERTEX
  8
ACCESSWAY_CENTRELINE
 10
515331.00
 20
1140852.00
  0
VERTEX
  8
ACCESSWAY_CENTRELINE
 10
515308.00
 20
1140881.00
  0
VERTEX
  8
ACCESSWAY_CENTRELINE
 10
515221.00
 20
1140930.00
  0
VERTEX
  8
ACCESSWAY_CENTRELINE
 10
515157.00
 20
1140944.00
  0
VERTEX
  8
ACCESSWAY_CENTRELINE
 10
515131.00
 20
1140942.00
  0
VERTEX
  8
ACCESSWAY_CENTRELINE
 10
515115.00
 20
1140941.00
  0
VERTEX
  8
ACCESSWAY_CENTRELINE
 10
515093.00
 20
1140935.00
  0
VERTEX
  8
ACCESSWAY_CENTRELINE
 10
515061.00
 20
1140922.00
  0
VERTEX
  8
ACCESSWAY_CENTRELINE
 10
515007.00
 20
1140882.00
  0
VERTEX
  8
ACCESSWAY_CENTRELINE
 10
514975.00
 20
1140857.00
  0
VERTEX
  8
ACCESSWAY_CENTRELINE
 10
514951.00
 20
1140841.00
  0
VERTEX
  8
ACCESSWAY_CENTRELINE
 10
514935.00
 20
1140834.00
  0
VERTEX
  8
ACCESSWAY_CENTRELINE
 10
514916.00
 20
1140828.00
  0
VERTEX
  8
ACCESSWAY_CENTRELINE
 10
514812.00
 20
1140811.00
  0
VERTEX
  8
ACCESSWAY_CENTRELINE
 10
514636.00
 20
1140788.00
  0
VERTEX
  8
ACCESSWAY_CENTRELINE
 10
514539.00
 20
1140785.00
  0
VERTEX
  8
ACCESSWAY_CENTRELINE
 10
514486.00
 20
1140778.00
  0
VERTEX
  8
ACCESSWAY_CENTRELINE
 10
514409.00
 20
1140765.00
  0
VERTEX
  8
ACCESSWAY_CENTRELINE
 10
514348.00
 20
1140755.00
  0
VERTEX
  8
ACCESSWAY_CENTRELINE
 10
514340.00
 20
1140754.00
  0
SEQEND
  8
ACCESSWAY_CENTRELINE
  0
POLYLINE
  8
TRANSMISSION_LINE_CROSS_COUNTRY
 66
     1
 62
     7
  6
DASHDOT
  0
VERTEX
  8
TRANSMISSION_LINE_CROSS_COUNTRY
 10
513502.00
 20
1142162.00
  0
VERTEX
  8
TRANSMISSION_LINE_CROSS_COUNTRY
 10
513770.00
 20
1141707.00
  0
VERTEX
  8
TRANSMISSION_LINE_CROSS_COUNTRY
 10
514164.00
 20
1141047.00
  0
VERTEX
  8
TRANSMISSION_LINE_CROSS_COUNTRY
 10
514340.00
 20
1140754.00
  0
SEQEND
  8
TRANSMISSION_LINE_CROSS_COUNTRY
  0
POLYLINE
  8
ACCESSWAY_CENTRELINE
 66
     1
 62
     1
  6
DASHED
  0
VERTEX
  8
ACCESSWAY_CENTRELINE
 10
510661.00
 20
1140845.00
  0
VERTEX
  8
ACCESSWAY_CENTRELINE
 10
510690.00
 20
1140854.00
  0
VERTEX
  8
ACCESSWAY_CENTRELINE
 10
510715.00
 20
1140853.00
  0
VERTEX
  8
ACCESSWAY_CENTRELINE
 10
510734.00
 20
1140848.00
  0
VERTEX
  8
ACCESSWAY_CENTRELINE
 10
510751.00
 20
1140837.00
  0
VERTEX
  8
ACCESSWAY_CENTRELINE
 10
510787.00
 20
1140811.00
  0
VERTEX
  8
ACCESSWAY_CENTRELINE
 10
510812.00
 20
1140788.00
  0
VERTEX
  8
ACCESSWAY_CENTRELINE
 10
510837.00
 20
1140749.00
  0
SEQEND
  8
ACCESSWAY_CENTRELINE
  0
POLYLINE
  8
ROAD_CENTRELINE
 66
     1
 62
     1
  6
CONTINUOUS
  0
VERTEX
  8
ROAD_CENTRELINE
 10
510837.00
 20
1140749.00
  0
VERTEX
  8
ROAD_CENTRELINE
 10
510825.00
 20
1140751.00
  0
VERTEX
  8
ROAD_CENTRELINE
 10
510812.00
 20
1140755.00
  0
VERTEX
  8
ROAD_CENTRELINE
 10
510798.00
 20
1140766.00
  0
VERTEX
  8
ROAD_CENTRELINE
 10
510790.00
 20
1140773.00
  0
VERTEX
  8
ROAD_CENTRELINE
 10
510739.00
 20
1140805.00
  0
VERTEX
  8
ROAD_CENTRELINE
 10
510704.00
 20
1140818.00
  0
VERTEX
  8
ROAD_CENTRELINE
 10
510674.00
 20
1140833.00
  0
VERTEX
  8
ROAD_CENTRELINE
 10
510661.00
 20
1140845.00
  0
SEQEND
  8
ROAD_CENTRELINE
  0
POLYLINE
  8
TRANSMISSION_LINE_CROSS_COUNTRY
 66
     1
 62
     7
  6
DASHDOT
  0
VERTEX
  8
TRANSMISSION_LINE_CROSS_COUNTRY
 10
514232.00
 20
1140749.00
  0
VERTEX
  8
TRANSMISSION_LINE_CROSS_COUNTRY
 10
514188.00
 20
1140824.00
  0
VERTEX
  8
TRANSMISSION_LINE_CROSS_COUNTRY
 10
513930.00
 20
1141253.00
  0
VERTEX
  8
TRANSMISSION_LINE_CROSS_COUNTRY
 10
513608.00
 20
1141785.00
  0
VERTEX
  8
TRANSMISSION_LINE_CROSS_COUNTRY
 10
513416.00
 20
1142106.00
  0
SEQEND
  8
TRANSMISSION_LINE_CROSS_COUNTRY
  0
POLYLINE
  8
ACCESSWAY_CENTRELINE
 66
     1
 62
     1
  6
DASHED
  0
VERTEX
  8
ACCESSWAY_CENTRELINE
 10
514232.00
 20
1140749.00
  0
VERTEX
  8
ACCESSWAY_CENTRELINE
 10
514198.00
 20
1140751.00
  0
VERTEX
  8
ACCESSWAY_CENTRELINE
 10
514175.00
 20
1140754.00
  0
VERTEX
  8
ACCESSWAY_CENTRELINE
 10
514147.00
 20
1140756.00
  0
VERTEX
  8
ACCESSWAY_CENTRELINE
 10
514124.00
 20
1140757.00
  0
VERTEX
  8
ACCESSWAY_CENTRELINE
 10
514111.00
 20
1140760.00
  0
VERTEX
  8
ACCESSWAY_CENTRELINE
 10
514099.00
 20
1140766.00
  0
SEQEND
  8
ACCESSWAY_CENTRELINE
  0
POLYLINE
  8
ACCESSWAY_CENTRELINE
 66
     1
 62
     1
  6
DASHED
  0
VERTEX
  8
ACCESSWAY_CENTRELINE
 10
514340.00
 20
1140754.00
  0
VERTEX
  8
ACCESSWAY_CENTRELINE
 10
514305.00
 20
1140750.00
  0
VERTEX
  8
ACCESSWAY_CENTRELINE
 10
514235.00
 20
1140749.00
  0
VERTEX
  8
ACCESSWAY_CENTRELINE
 10
514232.00
 20
1140749.00
  0
SEQEND
  8
ACCESSWAY_CENTRELINE
  0
POLYLINE
  8
ACCESSWAY_CENTRELINE
 66
     1
 62
     1
  6
DASHED
  0
VERTEX
  8
ACCESSWAY_CENTRELINE
 10
510890.00
 20
1140743.00
  0
VERTEX
  8
ACCESSWAY_CENTRELINE
 10
510948.00
 20
1140786.00
  0
VERTEX
  8
ACCESSWAY_CENTRELINE
 10
511008.00
 20
1140829.00
  0
VERTEX
  8
ACCESSWAY_CENTRELINE
 10
511058.00
 20
1140867.00
  0
VERTEX
  8
ACCESSWAY_CENTRELINE
 10
511097.00
 20
1140893.00
  0
VERTEX
  8
ACCESSWAY_CENTRELINE
 10
511134.00
 20
1140917.00
  0
VERTEX
  8
ACCESSWAY_CENTRELINE
 10
511165.00
 20
1140949.00
  0
VERTEX
  8
ACCESSWAY_CENTRELINE
 10
511183.00
 20
1140977.00
  0
VERTEX
  8
ACCESSWAY_CENTRELINE
 10
511197.00
 20
1141004.00
  0
SEQEND
  8
ACCESSWAY_CENTRELINE
  0
POLYLINE
  8
ROAD_CENTRELINE
 66
     1
 62
     1
  6
CONTINUOUS
  0
VERTEX
  8
ROAD_CENTRELINE
 10
510890.00
 20
1140743.00
  0
VERTEX
  8
ROAD_CENTRELINE
 10
510857.00
 20
1140746.00
  0
VERTEX
  8
ROAD_CENTRELINE
 10
510837.00
 20
1140749.00
  0
SEQEND
  8
ROAD_CENTRELINE
  0
POLYLINE
  8
ACCESSWAY_CENTRELINE
 66
     1
 62
     1
  6
DASHED
  0
VERTEX
  8
ACCESSWAY_CENTRELINE
 10
518173.00
 20
1141196.00
  0
VERTEX
  8
ACCESSWAY_CENTRELINE
 10
518160.00
 20
1141190.00
  0
VERTEX
  8
ACCESSWAY_CENTRELINE
 10
518092.00
 20
1141156.00
  0
VERTEX
  8
ACCESSWAY_CENTRELINE
 10
518057.00
 20
1141135.00
  0
VERTEX
  8
ACCESSWAY_CENTRELINE
 10
517996.00
 20
1141086.00
  0
VERTEX
  8
ACCESSWAY_CENTRELINE
 10
517942.00
 20
1141048.00
  0
VERTEX
  8
ACCESSWAY_CENTRELINE
 10
517925.00
 20
1141031.00
  0
VERTEX
  8
ACCESSWAY_CENTRELINE
 10
517915.00
 20
1141011.00
  0
VERTEX
  8
ACCESSWAY_CENTRELINE
 10
517907.00
 20
1140986.00
  0
VERTEX
  8
ACCESSWAY_CENTRELINE
 10
517897.00
 20
1140928.00
  0
VERTEX
  8
ACCESSWAY_CENTRELINE
 10
517893.00
 20
1140902.00
  0
VERTEX
  8
ACCESSWAY_CENTRELINE
 10
517888.00
 20
1140891.00
  0
VERTEX
  8
ACCESSWAY_CENTRELINE
 10
517877.00
 20
1140874.00
  0
VERTEX
  8
ACCESSWAY_CENTRELINE
 10
517833.00
 20
1140842.00
  0
VERTEX
  8
ACCESSWAY_CENTRELINE
 10
517771.00
 20
1140803.00
  0
VERTEX
  8
ACCESSWAY_CENTRELINE
 10
517744.00
 20
1140782.00
  0
VERTEX
  8
ACCESSWAY_CENTRELINE
 10
517718.00
 20
1140756.00
  0
VERTEX
  8
ACCESSWAY_CENTRELINE
 10
517706.00
 20
1140743.00
  0
VERTEX
  8
ACCESSWAY_CENTRELINE
 10
517696.00
 20
1140727.00
  0
SEQEND
  8
ACCESSWAY_CENTRELINE
  0
POLYLINE
  8
TRAIL
 66
     1
 62
     2
  6
DIVIDE2
  0
VERTEX
  8
TRAIL
 10
515715.00
 20
1140864.00
  0
VERTEX
  8
TRAIL
 10
515755.00
 20
1140877.00
  0
VERTEX
  8
TRAIL
 10
515795.00
 20
1140873.00
  0
VERTEX
  8
TRAIL
 10
515818.00
 20
1140862.00
  0
VERTEX
  8
TRAIL
 10
515849.00
 20
1140844.00
  0
VERTEX
  8
TRAIL
 10
515909.00
 20
1140795.00
  0
VERTEX
  8
TRAIL
 10
515966.00
 20
1140748.00
  0
VERTEX
  8
TRAIL
 10
516007.00
 20
1140715.00
  0
VERTEX
  8
TRAIL
 10
516028.00
 20
1140699.00
  0
SEQEND
  8
TRAIL
  0
POLYLINE
  8
ACCESSWAY_CENTRELINE
 66
     1
 62
     1
  6
DASHED
  0
VERTEX
  8
ACCESSWAY_CENTRELINE
 10
519470.00
 20
1140546.00
  0
VERTEX
  8
ACCESSWAY_CENTRELINE
 10
519462.00
 20
1140546.00
  0
VERTEX
  8
ACCESSWAY_CENTRELINE
 10
519318.00
 20
1140543.00
  0
VERTEX
  8
ACCESSWAY_CENTRELINE
 10
519278.00
 20
1140545.00
  0
SEQEND
  8
ACCESSWAY_CENTRELINE
  0
POLYLINE
  8
ACCESSWAY_CENTRELINE
 66
     1
 62
     1
  6
DASHED
  0
VERTEX
  8
ACCESSWAY_CENTRELINE
 10
519278.00
 20
1140545.00
  0
VERTEX
  8
ACCESSWAY_CENTRELINE
 10
519191.00
 20
1140548.00
  0
VERTEX
  8
ACCESSWAY_CENTRELINE
 10
519078.00
 20
1140551.00
  0
VERTEX
  8
ACCESSWAY_CENTRELINE
 10
518979.00
 20
1140546.00
  0
VERTEX
  8
ACCESSWAY_CENTRELINE
 10
518931.00
 20
1140543.00
  0
VERTEX
  8
ACCESSWAY_CENTRELINE
 10
518906.00
 20
1140545.00
  0
VERTEX
  8
ACCESSWAY_CENTRELINE
 10
518880.00
 20
1140544.00
  0
VERTEX
  8
ACCESSWAY_CENTRELINE
 10
518833.00
 20
1140537.00
  0
SEQEND
  8
ACCESSWAY_CENTRELINE
  0
POLYLINE
  8
ROAD_CENTRELINE
 66
     1
 62
     1
  6
CONTINUOUS
  0
VERTEX
  8
ROAD_CENTRELINE
 10
518669.00
 20
1141115.00
  0
VERTEX
  8
ROAD_CENTRELINE
 10
518672.00
 20
1141093.00
  0
VERTEX
  8
ROAD_CENTRELINE
 10
518671.00
 20
1141040.00
  0
VERTEX
  8
ROAD_CENTRELINE
 10
518675.00
 20
1140894.00
  0
VERTEX
  8
ROAD_CENTRELINE
 10
518678.00
 20
1140813.00
  0
VERTEX
  8
ROAD_CENTRELINE
 10
518688.00
 20
1140781.00
  0
VERTEX
  8
ROAD_CENTRELINE
 10
518691.00
 20
1140773.00
  0
VERTEX
  8
ROAD_CENTRELINE
 10
518700.00
 20
1140747.00
  0
VERTEX
  8
ROAD_CENTRELINE
 10
518712.00
 20
1140726.00
  0
VERTEX
  8
ROAD_CENTRELINE
 10
518728.00
 20
1140700.00
  0
VERTEX
  8
ROAD_CENTRELINE
 10
518760.00
 20
1140655.00
  0
VERTEX
  8
ROAD_CENTRELINE
 10
518785.00
 20
1140623.00
  0
VERTEX
  8
ROAD_CENTRELINE
 10
518807.00
 20
1140591.00
  0
VERTEX
  8
ROAD_CENTRELINE
 10
518820.00
 20
1140572.00
  0
VERTEX
  8
ROAD_CENTRELINE
 10
518828.00
 20
1140554.00
  0
VERTEX
  8
ROAD_CENTRELINE
 10
518833.00
 20
1140537.00
  0
SEQEND
  8
ROAD_CENTRELINE
  0
POLYLINE
  8
ROAD_CENTRELINE
 66
     1
 62
     1
  6
CONTINUOUS
  0
VERTEX
  8
ROAD_CENTRELINE
 10
515715.00
 20
1140855.00
  0
VERTEX
  8
ROAD_CENTRELINE
 10
515715.00
 20
1140844.00
  0
VERTEX
  8
ROAD_CENTRELINE
 10
515720.00
 20
1140816.00
  0
VERTEX
  8
ROAD_CENTRELINE
 10
515735.00
 20
1140700.00
  0
VERTEX
  8
ROAD_CENTRELINE
 10
515768.00
 20
1140538.00
  0
VERTEX
  8
ROAD_CENTRELINE
 10
515779.00
 20
1140503.00
  0
VERTEX
  8
ROAD_CENTRELINE
 10
515781.00
 20
1140489.00
  0
SEQEND
  8
ROAD_CENTRELINE
  0
POLYLINE
  8
TRAIL
 66
     1
 62
     2
  6
DIVIDE2
  0
VERTEX
  8
TRAIL
 10
515781.00
 20
1140489.00
  0
VERTEX
  8
TRAIL
 10
515818.00
 20
1140478.00
  0
VERTEX
  8
TRAIL
 10
515854.00
 20
1140475.00
  0
VERTEX
  8
TRAIL
 10
515881.00
 20
1140483.00
  0
VERTEX
  8
TRAIL
 10
515896.00
 20
1140491.00
  0
VERTEX
  8
TRAIL
 10
515922.00
 20
1140507.00
  0
SEQEND
  8
TRAIL
  0
POLYLINE
  8
TRAIL
 66
     1
 62
     2
  6
DIVIDE2
  0
VERTEX
  8
TRAIL
 10
511681.00
 20
1140875.00
  0
VERTEX
  8
TRAIL
 10
511680.00
 20
1140844.00
  0
VERTEX
  8
TRAIL
 10
511664.00
 20
1140804.00
  0
VERTEX
  8
TRAIL
 10
511643.00
 20
1140787.00
  0
VERTEX
  8
TRAIL
 10
511605.00
 20
1140766.00
  0
VERTEX
  8
TRAIL
 10
511504.00
 20
1140690.00
  0
VERTEX
  8
TRAIL
 10
511456.00
 20
1140643.00
  0
VERTEX
  8
TRAIL
 10
511382.00
 20
1140551.00
  0
VERTEX
  8
TRAIL
 10
511337.00
 20
1140469.00
  0
VERTEX
  8
TRAIL
 10
511318.00
 20
1140442.00
  0
VERTEX
  8
TRAIL
 10
511287.00
 20
1140402.00
  0
SEQEND
  8
TRAIL
  0
POLYLINE
  8
ROAD_CENTRELINE
 66
     1
 62
     1
  6
CONTINUOUS
  0
VERTEX
  8
ROAD_CENTRELINE
 10
511287.00
 20
1140402.00
  0
VERTEX
  8
ROAD_CENTRELINE
 10
511279.00
 20
1140408.00
  0
VERTEX
  8
ROAD_CENTRELINE
 10
511270.00
 20
1140419.00
  0
VERTEX
  8
ROAD_CENTRELINE
 10
511238.00
 20
1140509.00
  0
VERTEX
  8
ROAD_CENTRELINE
 10
511215.00
 20
1140554.00
  0
VERTEX
  8
ROAD_CENTRELINE
 10
511206.00
 20
1140577.00
  0
VERTEX
  8
ROAD_CENTRELINE
 10
511203.00
 20
1140590.00
  0
VERTEX
  8
ROAD_CENTRELINE
 10
511201.00
 20
1140618.00
  0
VERTEX
  8
ROAD_CENTRELINE
 10
511197.00
 20
1140631.00
  0
VERTEX
  8
ROAD_CENTRELINE
 10
511158.00
 20
1140679.00
  0
VERTEX
  8
ROAD_CENTRELINE
 10
511125.00
 20
1140702.00
  0
VERTEX
  8
ROAD_CENTRELINE
 10
511066.00
 20
1140722.00
  0
VERTEX
  8
ROAD_CENTRELINE
 10
511007.00
 20
1140735.00
  0
VERTEX
  8
ROAD_CENTRELINE
 10
510940.00
 20
1140738.00
  0
VERTEX
  8
ROAD_CENTRELINE
 10
510890.00
 20
1140743.00
  0
SEQEND
  8
ROAD_CENTRELINE
  0
POLYLINE
  8
TRAIL
 66
     1
 62
     2
  6
DIVIDE2
  0
VERTEX
  8
TRAIL
 10
519470.00
 20
1140546.00
  0
VERTEX
  8
TRAIL
 10
519490.00
 20
1140496.00
  0
VERTEX
  8
TRAIL
 10
519547.00
 20
1140424.00
  0
VERTEX
  8
TRAIL
 10
519570.00
 20
1140403.00
  0
VERTEX
  8
TRAIL
 10
519584.00
 20
1140396.00
  0
SEQEND
  8
TRAIL
  0
POLYLINE
  8
TRAIL
 66
     1
 62
     2
  6
DIVIDE2
  0
VERTEX
  8
TRAIL
 10
514099.00
 20
1140766.00
  0
VERTEX
  8
TRAIL
 10
514056.00
 20
1140794.00
  0
VERTEX
  8
TRAIL
 10
513973.00
 20
1140806.00
  0
VERTEX
  8
TRAIL
 10
513945.00
 20
1140808.00
  0
VERTEX
  8
TRAIL
 10
513927.00
 20
1140805.00
  0
VERTEX
  8
TRAIL
 10
513911.00
 20
1140794.00
  0
VERTEX
  8
TRAIL
 10
513881.00
 20
1140736.00
  0
VERTEX
  8
TRAIL
 10
513860.00
 20
1140704.00
  0
VERTEX
  8
TRAIL
 10
513820.00
 20
1140668.00
  0
VERTEX
  8
TRAIL
 10
513780.00
 20
1140646.00
  0
VERTEX
  8
TRAIL
 10
513757.00
 20
1140616.00
  0
VERTEX
  8
TRAIL
 10
513743.00
 20
1140585.00
  0
VERTEX
  8
TRAIL
 10
513719.00
 20
1140518.00
  0
VERTEX
  8
TRAIL
 10
513644.00
 20
1140434.00
  0
VERTEX
  8
TRAIL
 10
513560.00
 20
1140315.00
  0
VERTEX
  8
TRAIL
 10
513509.00
 20
1140230.00
  0
VERTEX
  8
TRAIL
 10
513469.00
 20
1140203.00
  0
VERTEX
  8
TRAIL
 10
513433.00
 20
1140186.00
  0
VERTEX
  8
TRAIL
 10
513424.00
 20
1140180.00
  0
VERTEX
  8
TRAIL
 10
513418.00
 20
1140173.00
  0
SEQEND
  8
TRAIL
  0
POLYLINE
  8
TRAIL
 66
     1
 62
     2
  6
DIVIDE2
  0
VERTEX
  8
TRAIL
 10
519278.00
 20
1140545.00
  0
VERTEX
  8
TRAIL
 10
519296.00
 20
1140483.00
  0
VERTEX
  8
TRAIL
 10
519302.00
 20
1140444.00
  0
VERTEX
  8
TRAIL
 10
519301.00
 20
1140413.00
  0
VERTEX
  8
TRAIL
 10
519277.00
 20
1140261.00
  0
VERTEX
  8
TRAIL
 10
519248.00
 20
1140178.00
  0
VERTEX
  8
TRAIL
 10
519232.00
 20
1140135.00
  0
VERTEX
  8
TRAIL
 10
519223.00
 20
1140109.00
  0
SEQEND
  8
TRAIL
  0
POLYLINE
  8
ROAD_CENTRELINE
 66
     1
 62
     1
  6
CONTINUOUS
  0
VERTEX
  8
ROAD_CENTRELINE
 10
511444.00
 20
1140000.00
  0
VERTEX
  8
ROAD_CENTRELINE
 10
511435.00
 20
1140057.00
  0
VERTEX
  8
ROAD_CENTRELINE
 10
511414.00
 20
1140170.00
  0
VERTEX
  8
ROAD_CENTRELINE
 10
511380.00
 20
1140274.00
  0
VERTEX
  8
ROAD_CENTRELINE
 10
511351.00
 20
1140351.00
  0
VERTEX
  8
ROAD_CENTRELINE
 10
511341.00
 20
1140369.00
  0
VERTEX
  8
ROAD_CENTRELINE
 10
511335.00
 20
1140376.00
  0
VERTEX
  8
ROAD_CENTRELINE
 10
511331.00
 20
1140379.00
  0
VERTEX
  8
ROAD_CENTRELINE
 10
511322.00
 20
1140382.00
  0
VERTEX
  8
ROAD_CENTRELINE
 10
511303.00
 20
1140391.00
  0
VERTEX
  8
ROAD_CENTRELINE
 10
511287.00
 20
1140402.00
  0
SEQEND
  8
ROAD_CENTRELINE
  0
POLYLINE
  8
RAIL_LINE_MULTIPLE_TRACK
 66
     1
 62
     6
  6
CENTER2
  0
VERTEX
  8
RAIL_LINE_MULTIPLE_TRACK
 10
512854.00
 20
1141802.00
  0
VERTEX
  8
RAIL_LINE_MULTIPLE_TRACK
 10
512906.00
 20
1141688.00
  0
VERTEX
  8
RAIL_LINE_MULTIPLE_TRACK
 10
512944.00
 20
1141598.00
  0
VERTEX
  8
RAIL_LINE_MULTIPLE_TRACK
 10
512965.00
 20
1141547.00
  0
VERTEX
  8
RAIL_LINE_MULTIPLE_TRACK
 10
512979.00
 20
1141507.00
  0
VERTEX
  8
RAIL_LINE_MULTIPLE_TRACK
 10
512998.00
 20
1141449.00
  0
VERTEX
  8
RAIL_LINE_MULTIPLE_TRACK
 10
513063.00
 20
1141240.00
  0
VERTEX
  8
RAIL_LINE_MULTIPLE_TRACK
 10
513109.00
 20
1141104.00
  0
VERTEX
  8
RAIL_LINE_MULTIPLE_TRACK
 10
513144.00
 20
1141005.00
  0
VERTEX
  8
RAIL_LINE_MULTIPLE_TRACK
 10
513181.00
 20
1140880.00
  0
VERTEX
  8
RAIL_LINE_MULTIPLE_TRACK
 10
513251.00
 20
1140655.00
  0
VERTEX
  8
RAIL_LINE_MULTIPLE_TRACK
 10
513292.00
 20
1140543.00
  0
VERTEX
  8
RAIL_LINE_MULTIPLE_TRACK
 10
513326.00
 20
1140461.00
  0
VERTEX
  8
RAIL_LINE_MULTIPLE_TRACK
 10
513345.00
 20
1140392.00
  0
VERTEX
  8
RAIL_LINE_MULTIPLE_TRACK
 10
513354.00
 20
1140349.00
  0
VERTEX
  8
RAIL_LINE_MULTIPLE_TRACK
 10
513370.00
 20
1140288.00
  0
VERTEX
  8
RAIL_LINE_MULTIPLE_TRACK
 10
513377.00
 20
1140251.00
  0
VERTEX
  8
RAIL_LINE_MULTIPLE_TRACK
 10
513388.00
 20
1140193.00
  0
VERTEX
  8
RAIL_LINE_MULTIPLE_TRACK
 10
513395.00
 20
1140147.00
  0
VERTEX
  8
RAIL_LINE_MULTIPLE_TRACK
 10
513399.00
 20
1140114.00
  0
VERTEX
  8
RAIL_LINE_MULTIPLE_TRACK
 10
513401.00
 20
1140057.00
  0
VERTEX
  8
RAIL_LINE_MULTIPLE_TRACK
 10
513402.00
 20
1140000.00
  0
SEQEND
  8
RAIL_LINE_MULTIPLE_TRACK
  0
POLYLINE
  8
TRANSMISSION_LINE_CROSS_COUNTRY
 66
     1
 62
     7
  6
DASHDOT
  0
VERTEX
  8
TRANSMISSION_LINE_CROSS_COUNTRY
 10
514678.00
 20
1140000.00
  0
VERTEX
  8
TRANSMISSION_LINE_CROSS_COUNTRY
 10
514232.00
 20
1140749.00
  0
SEQEND
  8
TRANSMISSION_LINE_CROSS_COUNTRY
  0
POLYLINE
  8
TRANSMISSION_LINE_CROSS_COUNTRY
 66
     1
 62
     7
  6
DASHDOT
  0
VERTEX
  8
TRANSMISSION_LINE_CROSS_COUNTRY
 10
514340.00
 20
1140754.00
  0
VERTEX
  8
TRANSMISSION_LINE_CROSS_COUNTRY
 10
514478.00
 20
1140523.00
  0
VERTEX
  8
TRANSMISSION_LINE_CROSS_COUNTRY
 10
514800.00
 20
1140000.00
  0
SEQEND
  8
TRANSMISSION_LINE_CROSS_COUNTRY
  0
POLYLINE
  8
ROAD_CENTRELINE
 66
     1
 62
     1
  6
CONTINUOUS
  0
VERTEX
  8
ROAD_CENTRELINE
 10
515781.00
 20
1140489.00
  0
VERTEX
  8
ROAD_CENTRELINE
 10
515785.00
 20
1140463.00
  0
VERTEX
  8
ROAD_CENTRELINE
 10
515787.00
 20
1140438.00
  0
VERTEX
  8
ROAD_CENTRELINE
 10
515784.00
 20
1140423.00
  0
VERTEX
  8
ROAD_CENTRELINE
 10
515773.00
 20
1140396.00
  0
VERTEX
  8
ROAD_CENTRELINE
 10
515739.00
 20
1140346.00
  0
VERTEX
  8
ROAD_CENTRELINE
 10
515723.00
 20
1140312.00
  0
VERTEX
  8
ROAD_CENTRELINE
 10
515715.00
 20
1140283.00
  0
VERTEX
  8
ROAD_CENTRELINE
 10
515709.00
 20
1140220.00
  0
VERTEX
  8
ROAD_CENTRELINE
 10
515700.00
 20
1140140.00
  0
VERTEX
  8
ROAD_CENTRELINE
 10
515697.00
 20
1140092.00
  0
VERTEX
  8
ROAD_CENTRELINE
 10
515694.00
 20
1140057.00
  0
VERTEX
  8
ROAD_CENTRELINE
 10
515692.00
 20
1140000.00
  0
SEQEND
  8
ROAD_CENTRELINE
  0
POLYLINE
  8
ROAD_CENTRELINE
 66
     1
 62
     1
  6
CONTINUOUS
  0
VERTEX
  8
ROAD_CENTRELINE
 10
518833.00
 20
1140537.00
  0
VERTEX
  8
ROAD_CENTRELINE
 10
518838.00
 20
1140522.00
  0
VERTEX
  8
ROAD_CENTRELINE
 10
518848.00
 20
1140477.00
  0
VERTEX
  8
ROAD_CENTRELINE
 10
518849.00
 20
1140448.00
  0
VERTEX
  8
ROAD_CENTRELINE
 10
518847.00
 20
1140418.00
  0
VERTEX
  8
ROAD_CENTRELINE
 10
518834.00
 20
1140292.00
  0
VERTEX
  8
ROAD_CENTRELINE
 10
518822.00
 20
1140242.00
  0
VERTEX
  8
ROAD_CENTRELINE
 10
518787.00
 20
1140136.00
  0
VERTEX
  8
ROAD_CENTRELINE
 10
518758.00
 20
1140066.00
  0
VERTEX
  8
ROAD_CENTRELINE
 10
518744.00
 20
1140039.00
  0
VERTEX
  8
ROAD_CENTRELINE
 10
518724.00
 20
1140000.00
  0
SEQEND
  8
ROAD_CENTRELINE
  0
POLYLINE
  8
ROAD_CENTRELINE
 66
     1
 62
     1
  6
CONTINUOUS
  0
VERTEX
  8
ROAD_CENTRELINE
 10
515932.00
 20
1148214.00
  0
VERTEX
  8
ROAD_CENTRELINE
 10
515931.00
 20
1148105.00
  0
VERTEX
  8
ROAD_CENTRELINE
 10
515935.00
 20
1148016.00
  0
SEQEND
  8
ROAD_CENTRELINE
  0
POLYLINE
  8
ROAD_CENTRELINE
 66
     1
 62
     1
  6
CONTINUOUS
  0
VERTEX
  8
ROAD_CENTRELINE
 10
516205.00
 20
1147989.00
  0
VERTEX
  8
ROAD_CENTRELINE
 10
516242.00
 20
1147991.00
  0
VERTEX
  8
ROAD_CENTRELINE
 10
516268.00
 20
1147992.00
  0
SEQEND
  8
ROAD_CENTRELINE
  0
POLYLINE
  8
ROAD_CENTRELINE
 66
     1
 62
     1
  6
CONTINUOUS
  0
VERTEX
  8
ROAD_CENTRELINE
 10
516008.00
 20
1147977.00
  0
VERTEX
  8
ROAD_CENTRELINE
 10
516051.00
 20
1147980.00
  0
VERTEX
  8
ROAD_CENTRELINE
 10
516205.00
 20
1147989.00
  0
SEQEND
  8
ROAD_CENTRELINE
  0
POLYLINE
  8
ROAD_CENTRELINE
 66
     1
 62
     1
  6
CONTINUOUS
  0
VERTEX
  8
ROAD_CENTRELINE
 10
515901.00
 20
1147972.00
  0
VERTEX
  8
ROAD_CENTRELINE
 10
515923.00
 20
1147973.00
  0
VERTEX
  8
ROAD_CENTRELINE
 10
516008.00
 20
1147977.00
  0
SEQEND
  8
ROAD_CENTRELINE
  0
POLYLINE
  8
ROAD_CENTRELINE
 66
     1
 62
     1
  6
CONTINUOUS
  0
VERTEX
  8
ROAD_CENTRELINE
 10
516008.00
 20
1147977.00
  0
VERTEX
  8
ROAD_CENTRELINE
 10
516015.00
 20
1147940.00
  0
VERTEX
  8
ROAD_CENTRELINE
 10
516021.00
 20
1147913.00
  0
VERTEX
  8
ROAD_CENTRELINE
 10
516022.00
 20
1147907.00
  0
VERTEX
  8
ROAD_CENTRELINE
 10
516027.00
 20
1147904.00
  0
VERTEX
  8
ROAD_CENTRELINE
 10
516033.00
 20
1147904.00
  0
VERTEX
  8
ROAD_CENTRELINE
 10
516040.00
 20
1147904.00
  0
VERTEX
  8
ROAD_CENTRELINE
 10
516046.00
 20
1147904.00
  0
SEQEND
  8
ROAD_CENTRELINE
  0
POLYLINE
  8
ROAD_CENTRELINE
 66
     1
 62
     1
  6
CONTINUOUS
  0
VERTEX
  8
ROAD_CENTRELINE
 10
515901.00
 20
1147972.00
  0
VERTEX
  8
ROAD_CENTRELINE
 10
515915.00
 20
1147892.00
  0
VERTEX
  8
ROAD_CENTRELINE
 10
515918.00
 20
1147874.00
  0
SEQEND
  8
ROAD_CENTRELINE
  0
POLYLINE
  8
ROAD_CENTRELINE
 66
     1
 62
     1
  6
CONTINUOUS
  0
VERTEX
  8
ROAD_CENTRELINE
 10
515918.00
 20
1147874.00
  0
VERTEX
  8
ROAD_CENTRELINE
 10
515889.00
 20
1147866.00
  0
VERTEX
  8
ROAD_CENTRELINE
 10
515846.00
 20
1147863.00
  0
VERTEX
  8
ROAD_CENTRELINE
 10
515816.00
 20
1147864.00
  0
VERTEX
  8
ROAD_CENTRELINE
 10
515794.00
 20
1147864.00
  0
VERTEX
  8
ROAD_CENTRELINE
 10
515777.00
 20
1147863.00
  0
VERTEX
  8
ROAD_CENTRELINE
 10
515753.00
 20
1147863.00
  0
SEQEND
  8
ROAD_CENTRELINE
  0
POLYLINE
  8
ROAD_CENTRELINE
 66
     1
 62
     1
  6
CONTINUOUS
  0
VERTEX
  8
ROAD_CENTRELINE
 10
515918.00
 20
1147874.00
  0
VERTEX
  8
ROAD_CENTRELINE
 10
515926.00
 20
1147815.00
  0
VERTEX
  8
ROAD_CENTRELINE
 10
515927.13
 20
1147805.00
  0
SEQEND
  8
ROAD_CENTRELINE
  0
POLYLINE
  8
ROAD_CENTRELINE
 66
     1
 62
     1
  6
CONTINUOUS
  0
VERTEX
  8
ROAD_CENTRELINE
 10
516177.84
 20
1147805.00
  0
VERTEX
  8
ROAD_CENTRELINE
 10
516181.00
 20
1147820.00
  0
VERTEX
  8
ROAD_CENTRELINE
 10
516196.00
 20
1147897.00
  0
VERTEX
  8
ROAD_CENTRELINE
 10
516205.00
 20
1147989.00
  0
SEQEND
  8
ROAD_CENTRELINE
  0
POLYLINE
  8
ROAD_CENTRELINE
 66
     1
 62
     1
  6
CONTINUOUS
  0
VERTEX
  8
ROAD_CENTRELINE
 10
515927.13
 20
1147805.00
  0
VERTEX
  8
ROAD_CENTRELINE
 10
516177.84
 20
1147805.00
  0
SEQEND
  8
ROAD_CENTRELINE
  0
POLYLINE
  8
ROAD_CENTRELINE
 66
     1
 62
     1
  6
CONTINUOUS
  0
VERTEX
  8
ROAD_CENTRELINE
 10
515927.13
 20
1147805.00
  0
VERTEX
  8
ROAD_CENTRELINE
 10
515932.00
 20
1147762.00
  0
VERTEX
  8
ROAD_CENTRELINE
 10
515931.00
 20
1147724.00
  0
VERTEX
  8
ROAD_CENTRELINE
 10
515933.00
 20
1147701.00
  0
VERTEX
  8
ROAD_CENTRELINE
 10
515935.00
 20
1147689.00
  0
VERTEX
  8
ROAD_CENTRELINE
 10
515939.00
 20
1147683.00
  0
SEQEND
  8
ROAD_CENTRELINE
  0
POLYLINE
  8
ROAD_CENTRELINE
 66
     1
 62
     1
  6
CONTINUOUS
  0
VERTEX
  8
ROAD_CENTRELINE
 10
515939.00
 20
1147683.00
  0
VERTEX
  8
ROAD_CENTRELINE
 10
515942.00
 20
1147681.00
  0
VERTEX
  8
ROAD_CENTRELINE
 10
515950.00
 20
1147677.00
  0
VERTEX
  8
ROAD_CENTRELINE
 10
516036.00
 20
1147671.00
  0
VERTEX
  8
ROAD_CENTRELINE
 10
516105.00
 20
1147672.00
  0
VERTEX
  8
ROAD_CENTRELINE
 10
516125.00
 20
1147673.00
  0
VERTEX
  8
ROAD_CENTRELINE
 10
516138.00
 20
1147677.00
  0
VERTEX
  8
ROAD_CENTRELINE
 10
516145.00
 20
1147683.00
  0
VERTEX
  8
ROAD_CENTRELINE
 10
516150.00
 20
1147689.00
  0
VERTEX
  8
ROAD_CENTRELINE
 10
516158.00
 20
1147711.00
  0
VERTEX
  8
ROAD_CENTRELINE
 10
516177.84
 20
1147805.00
  0
SEQEND
  8
ROAD_CENTRELINE
  0
POLYLINE
  8
ROAD_CENTRELINE
 66
     1
 62
     1
  6
CONTINUOUS
  0
VERTEX
  8
ROAD_CENTRELINE
 10
516224.00
 20
1147552.00
  0
VERTEX
  8
ROAD_CENTRELINE
 10
516259.00
 20
1147633.00
  0
VERTEX
  8
ROAD_CENTRELINE
 10
516319.00
 20
1147781.00
  0
VERTEX
  8
ROAD_CENTRELINE
 10
516334.00
 20
1147808.00
  0
VERTEX
  8
ROAD_CENTRELINE
 10
516350.00
 20
1147824.00
  0
VERTEX
  8
ROAD_CENTRELINE
 10
516365.00
 20
1147831.00
  0
VERTEX
  8
ROAD_CENTRELINE
 10
516373.00
 20
1147831.00
  0
VERTEX
  8
ROAD_CENTRELINE
 10
516390.00
 20
1147827.00
  0
VERTEX
  8
ROAD_CENTRELINE
 10
516413.00
 20
1147818.00
  0
VERTEX
  8
ROAD_CENTRELINE
 10
516458.00
 20
1147791.00
  0
SEQEND
  8
ROAD_CENTRELINE
  0
POLYLINE
  8
ACCESSWAY_CENTRELINE
 66
     1
 62
     1
  6
DASHED
  0
VERTEX
  8
ACCESSWAY_CENTRELINE
 10
515939.00
 20
1147683.00
  0
VERTEX
  8
ACCESSWAY_CENTRELINE
 10
515916.00
 20
1147637.00
  0
VERTEX
  8
ACCESSWAY_CENTRELINE
 10
515903.00
 20
1147555.00
  0
VERTEX
  8
ACCESSWAY_CENTRELINE
 10
515891.00
 20
1147452.00
  0
VERTEX
  8
ACCESSWAY_CENTRELINE
 10
515885.00
 20
1147426.00
  0
VERTEX
  8
ACCESSWAY_CENTRELINE
 10
515872.00
 20
1147398.00
  0
VERTEX
  8
ACCESSWAY_CENTRELINE
 10
515859.00
 20
1147375.00
  0
VERTEX
  8
ACCESSWAY_CENTRELINE
 10
515842.00
 20
1147346.00
  0
VERTEX
  8
ACCESSWAY_CENTRELINE
 10
515834.00
 20
1147328.00
  0
VERTEX
  8
ACCESSWAY_CENTRELINE
 10
515832.00
 20
1147321.00
  0
SEQEND
  8
ACCESSWAY_CENTRELINE
  0
POLYLINE
  8
ROAD_CENTRELINE
 66
     1
 62
     1
  6
CONTINUOUS
  0
VERTEX
  8
ROAD_CENTRELINE
 10
519833.00
 20
1149561.00
  0
VERTEX
  8
ROAD_CENTRELINE
 10
519902.00
 20
1149565.00
  0
VERTEX
  8
ROAD_CENTRELINE
 10
520000.00
 20
1149578.00
  0
SEQEND
  8
ROAD_CENTRELINE
  0
POLYLINE
  8
ACCESSWAY_CENTRELINE
 66
     1
 62
     1
  6
DASHED
  0
VERTEX
  8
ACCESSWAY_CENTRELINE
 10
519833.00
 20
1149561.00
  0
VERTEX
  8
ACCESSWAY_CENTRELINE
 10
519843.00
 20
1149545.00
  0
VERTEX
  8
ACCESSWAY_CENTRELINE
 10
519864.00
 20
1149520.00
  0
VERTEX
  8
ACCESSWAY_CENTRELINE
 10
519887.00
 20
1149492.00
  0
VERTEX
  8
ACCESSWAY_CENTRELINE
 10
519893.00
 20
1149476.00
  0
VERTEX
  8
ACCESSWAY_CENTRELINE
 10
519898.00
 20
1149448.00
  0
SEQEND
  8
ACCESSWAY_CENTRELINE
  0
POLYLINE
  8
ROAD_CENTRELINE
 66
     1
 62
     1
  6
CONTINUOUS
  0
VERTEX
  8
ROAD_CENTRELINE
 10
519442.00
 20
1149418.00
  0
VERTEX
  8
ROAD_CENTRELINE
 10
519517.00
 20
1149467.00
  0
VERTEX
  8
ROAD_CENTRELINE
 10
519586.00
 20
1149504.00
  0
VERTEX
  8
ROAD_CENTRELINE
 10
519610.00
 20
1149514.00
  0
VERTEX
  8
ROAD_CENTRELINE
 10
519631.00
 20
1149522.00
  0
VERTEX
  8
ROAD_CENTRELINE
 10
519678.00
 20
1149533.00
  0
VERTEX
  8
ROAD_CENTRELINE
 10
519759.00
 20
1149556.00
  0
VERTEX
  8
ROAD_CENTRELINE
 10
519825.00
 20
1149561.00
  0
VERTEX
  8
ROAD_CENTRELINE
 10
519833.00
 20
1149561.00
  0
SEQEND
  8
ROAD_CENTRELINE
  0
POLYLINE
  8
TRAIL
 66
     1
 62
     2
  6
DIVIDE2
  0
VERTEX
  8
TRAIL
 10
519442.00
 20
1149418.00
  0
VERTEX
  8
TRAIL
 10
519438.00
 20
1149434.00
  0
VERTEX
  8
TRAIL
 10
519436.00
 20
1149441.00
  0
VERTEX
  8
TRAIL
 10
519430.00
 20
1149449.00
  0
VERTEX
  8
TRAIL
 10
519417.00
 20
1149459.00
  0
VERTEX
  8
TRAIL
 10
519401.00
 20
1149465.00
  0
VERTEX
  8
TRAIL
 10
519384.00
 20
1149467.00
  0
VERTEX
  8
TRAIL
 10
519366.00
 20
1149467.00
  0
VERTEX
  8
TRAIL
 10
519347.00
 20
1149462.00
  0
SEQEND
  8
TRAIL
  0
POLYLINE
  8
TRAIL
 66
     1
 62
     2
  6
DIVIDE2
  0
VERTEX
  8
TRAIL
 10
519347.00
 20
1149462.00
  0
VERTEX
  8
TRAIL
 10
519346.00
 20
1149461.00
  0
VERTEX
  8
TRAIL
 10
519330.00
 20
1149454.00
  0
VERTEX
  8
TRAIL
 10
519304.00
 20
1149443.00
  0
VERTEX
  8
TRAIL
 10
519280.00
 20
1149429.00
  0
VERTEX
  8
TRAIL
 10
519258.00
 20
1149411.00
  0
SEQEND
  8
TRAIL
  0
POLYLINE
  8
ROAD_CENTRELINE
 66
     1
 62
     1
  6
CONTINUOUS
  0
VERTEX
  8
ROAD_CENTRELINE
 10
519363.00
 20
1149367.00
  0
VERTEX
  8
ROAD_CENTRELINE
 10
519398.00
 20
1149390.00
  0
VERTEX
  8
ROAD_CENTRELINE
 10
519442.00
 20
1149418.00
  0
SEQEND
  8
ROAD_CENTRELINE
  0
POLYLINE
  8
TRAIL
 66
     1
 62
     2
  6
DIVIDE2
  0
VERTEX
  8
TRAIL
 10
519347.00
 20
1149462.00
  0
VERTEX
  8
TRAIL
 10
519353.00
 20
1149412.00
  0
VERTEX
  8
TRAIL
 10
519363.00
 20
1149367.00
  0
SEQEND
  8
TRAIL
  0
POLYLINE
  8
TRAIL
 66
     1
 62
     2
  6
DIVIDE2
  0
VERTEX
  8
TRAIL
 10
510000.00
 20
1149001.00
  0
VERTEX
  8
TRAIL
 10
510007.00
 20
1148996.00
  0
VERTEX
  8
TRAIL
 10
510012.00
 20
1148985.00
  0
VERTEX
  8
TRAIL
 10
510012.00
 20
1148973.00
  0
VERTEX
  8
TRAIL
 10
510000.00
 20
1148933.00
  0
SEQEND
  8
TRAIL
  0
POLYLINE
  8
TRANSMISSION_LINE_CROSS_COUNTRY
 66
     1
 62
     7
  6
DASHDOT
  0
VERTEX
  8
TRANSMISSION_LINE_CROSS_COUNTRY
 10
510005.03
 20
1148876.75
  0
VERTEX
  8
TRANSMISSION_LINE_CROSS_COUNTRY
 10
510000.00
 20
1148890.00
  0
SEQEND
  8
TRANSMISSION_LINE_CROSS_COUNTRY
  0
POLYLINE
  8
ROAD_CENTRELINE
 66
     1
 62
     1
  6
CONTINUOUS
  0
VERTEX
  8
ROAD_CENTRELINE
 10
510000.00
 20
1148878.00
  0
VERTEX
  8
ROAD_CENTRELINE
 10
510005.03
 20
1148876.75
  0
SEQEND
  8
ROAD_CENTRELINE
  0
POLYLINE
  8
TRANSMISSION_LINE_CROSS_COUNTRY
 66
     1
 62
     7
  6
DASHDOT
  0
VERTEX
  8
TRANSMISSION_LINE_CROSS_COUNTRY
 10
510000.00
 20
1149927.00
  0
VERTEX
  8
TRANSMISSION_LINE_CROSS_COUNTRY
 10
510601.00
 20
1149471.00
  0
VERTEX
  8
TRANSMISSION_LINE_CROSS_COUNTRY
 10
511404.00
 20
1148873.00
  0
SEQEND
  8
TRANSMISSION_LINE_CROSS_COUNTRY
  0
POLYLINE
  8
TRANSMISSION_LINE_CROSS_COUNTRY
 66
     1
 62
     7
  6
DASHDOT
  0
VERTEX
  8
TRANSMISSION_LINE_CROSS_COUNTRY
 10
510000.00
 20
1149125.00
  0
VERTEX
  8
TRANSMISSION_LINE_CROSS_COUNTRY
 10
510115.00
 20
1148871.00
  0
SEQEND
  8
TRANSMISSION_LINE_CROSS_COUNTRY
  0
POLYLINE
  8
ROAD_CENTRELINE
 66
     1
 62
     1
  6
CONTINUOUS
  0
VERTEX
  8
ROAD_CENTRELINE
 10
510005.03
 20
1148876.75
  0
VERTEX
  8
ROAD_CENTRELINE
 10
510115.00
 20
1148871.00
  0
SEQEND
  8
ROAD_CENTRELINE
  0
POLYLINE
  8
ROAD_CENTRELINE
 66
     1
 62
     1
  6
CONTINUOUS
  0
VERTEX
  8
ROAD_CENTRELINE
 10
510115.00
 20
1148871.00
  0
VERTEX
  8
ROAD_CENTRELINE
 10
510179.00
 20
1148870.00
  0
VERTEX
  8
ROAD_CENTRELINE
 10
510671.00
 20
1148864.00
  0
VERTEX
  8
ROAD_CENTRELINE
 10
510953.00
 20
1148858.00
  0
VERTEX
  8
ROAD_CENTRELINE
 10
511429.00
 20
1148849.00
  0
VERTEX
  8
ROAD_CENTRELINE
 10
511559.00
 20
1148852.00
  0
VERTEX
  8
ROAD_CENTRELINE
 10
511630.00
 20
1148848.00
  0
VERTEX
  8
ROAD_CENTRELINE
 10
511708.00
 20
1148838.00
  0
VERTEX
  8
ROAD_CENTRELINE
 10
511715.00
 20
1148836.00
  0
SEQEND
  8
ROAD_CENTRELINE
  0
POLYLINE
  8
RAIL_LINE
 66
     1
 62
     6
  6
CONTINUOUS
  0
VERTEX
  8
RAIL_LINE
 10
517998.00
 20
1148767.00
  0
VERTEX
  8
RAIL_LINE
 10
518032.00
 20
1148795.00
  0
VERTEX
  8
RAIL_LINE
 10
518106.00
 20
1148845.00
  0
VERTEX
  8
RAIL_LINE
 10
518188.00
 20
1148899.00
  0
VERTEX
  8
RAIL_LINE
 10
518277.00
 20
1148953.00
  0
VERTEX
  8
RAIL_LINE
 10
518404.00
 20
1149031.00
  0
VERTEX
  8
RAIL_LINE
 10
518583.00
 20
1149138.00
  0
VERTEX
  8
RAIL_LINE
 10
518642.00
 20
1149172.00
  0
VERTEX
  8
RAIL_LINE
 10
518753.00
 20
1149236.00
  0
VERTEX
  8
RAIL_LINE
 10
518908.00
 20
1149323.00
  0
VERTEX
  8
RAIL_LINE
 10
518983.00
 20
1149370.00
  0
VERTEX
  8
RAIL_LINE
 10
519073.00
 20
1149420.00
  0
VERTEX
  8
RAIL_LINE
 10
519121.00
 20
1149447.00
  0
VERTEX
  8
RAIL_LINE
 10
519228.00
 20
1149504.00
  0
VERTEX
  8
RAIL_LINE
 10
519265.00
 20
1149527.00
  0
VERTEX
  8
RAIL_LINE
 10
519302.00
 20
1149544.00
  0
VERTEX
  8
RAIL_LINE
 10
519355.00
 20
1149559.00
  0
VERTEX
  8
RAIL_LINE
 10
519379.00
 20
1149567.00
  0
VERTEX
  8
RAIL_LINE
 10
519400.00
 20
1149573.00
  0
VERTEX
  8
RAIL_LINE
 10
519424.00
 20
1149576.00
  0
VERTEX
  8
RAIL_LINE
 10
519518.00
 20
1149594.00
  0
VERTEX
  8
RAIL_LINE
 10
519591.00
 20
1149598.00
  0
VERTEX
  8
RAIL_LINE
 10
519650.00
 20
1149604.00
  0
VERTEX
  8
RAIL_LINE
 10
519796.00
 20
1149620.00
  0
VERTEX
  8
RAIL_LINE
 10
519839.00
 20
1149627.00
  0
VERTEX
  8
RAIL_LINE
 10
519919.00
 20
1149633.00
  0
VERTEX
  8
RAIL_LINE
 10
520000.00
 20
1149644.00
  0
SEQEND
  8
RAIL_LINE
  0
POLYLINE
  8
ACCESSWAY_CENTRELINE
 66
     1
 62
     1
  6
DASHED
  0
VERTEX
  8
ACCESSWAY_CENTRELINE
 10
517998.00
 20
1148767.00
  0
VERTEX
  8
ACCESSWAY_CENTRELINE
 10
517980.00
 20
1148783.00
  0
VERTEX
  8
ACCESSWAY_CENTRELINE
 10
517961.00
 20
1148789.00
  0
VERTEX
  8
ACCESSWAY_CENTRELINE
 10
517954.00
 20
1148789.00
  0
VERTEX
  8
ACCESSWAY_CENTRELINE
 10
517945.00
 20
1148787.00
  0
VERTEX
  8
ACCESSWAY_CENTRELINE
 10
517916.00
 20
1148781.00
  0
VERTEX
  8
ACCESSWAY_CENTRELINE
 10
517901.00
 20
1148777.00
  0
SEQEND
  8
ACCESSWAY_CENTRELINE
  0
POLYLINE
  8
ROAD_CENTRELINE
 66
     1
 62
     1
  6
CONTINUOUS
  0
VERTEX
  8
ROAD_CENTRELINE
 10
518450.00
 20
1148739.00
  0
VERTEX
  8
ROAD_CENTRELINE
 10
518529.00
 20
1148822.00
  0
VERTEX
  8
ROAD_CENTRELINE
 10
518627.00
 20
1148940.00
  0
VERTEX
  8
ROAD_CENTRELINE
 10
518688.00
 20
1149012.00
  0
VERTEX
  8
ROAD_CENTRELINE
 10
518734.00
 20
1149055.00
  0
VERTEX
  8
ROAD_CENTRELINE
 10
518762.00
 20
1149075.00
  0
VERTEX
  8
ROAD_CENTRELINE
 10
518852.00
 20
1149144.00
  0
VERTEX
  8
ROAD_CENTRELINE
 10
518924.00
 20
1149177.00
  0
VERTEX
  8
ROAD_CENTRELINE
 10
518948.00
 20
1149183.00
  0
VERTEX
  8
ROAD_CENTRELINE
 10
518980.00
 20
1149187.00
  0
VERTEX
  8
ROAD_CENTRELINE
 10
519098.00
 20
1149222.00
  0
VERTEX
  8
ROAD_CENTRELINE
 10
519152.00
 20
1149235.00
  0
VERTEX
  8
ROAD_CENTRELINE
 10
519236.00
 20
1149282.00
  0
VERTEX
  8
ROAD_CENTRELINE
 10
519318.00
 20
1149337.00
  0
VERTEX
  8
ROAD_CENTRELINE
 10
519363.00
 20
1149367.00
  0
SEQEND
  8
ROAD_CENTRELINE
  0
POLYLINE
  8
ACCESSWAY_CENTRELINE
 66
     1
 62
     1
  6
DASHED
  0
VERTEX
  8
ACCESSWAY_CENTRELINE
 10
518450.00
 20
1148739.00
  0
VERTEX
  8
ACCESSWAY_CENTRELINE
 10
518422.00
 20
1148761.00
  0
VERTEX
  8
ACCESSWAY_CENTRELINE
 10
518410.00
 20
1148765.00
  0
VERTEX
  8
ACCESSWAY_CENTRELINE
 10
518401.00
 20
1148767.00
  0
VERTEX
  8
ACCESSWAY_CENTRELINE
 10
518390.00
 20
1148766.00
  0
VERTEX
  8
ACCESSWAY_CENTRELINE
 10
518317.00
 20
1148750.00
  0
VERTEX
  8
ACCESSWAY_CENTRELINE
 10
518275.00
 20
1148737.00
  0
VERTEX
  8
ACCESSWAY_CENTRELINE
 10
518208.00
 20
1148724.00
  0
VERTEX
  8
ACCESSWAY_CENTRELINE
 10
518160.00
 20
1148716.00
  0
VERTEX
  8
ACCESSWAY_CENTRELINE
 10
518127.00
 20
1148716.00
  0
VERTEX
  8
ACCESSWAY_CENTRELINE
 10
518067.00
 20
1148724.00
  0
VERTEX
  8
ACCESSWAY_CENTRELINE
 10
518048.00
 20
1148730.00
  0
VERTEX
  8
ACCESSWAY_CENTRELINE
 10
518033.00
 20
1148736.00
  0
VERTEX
  8
ACCESSWAY_CENTRELINE
 10
518019.00
 20
1148744.00
  0
VERTEX
  8
ACCESSWAY_CENTRELINE
 10
517998.00
 20
1148767.00
  0
SEQEND
  8
ACCESSWAY_CENTRELINE
  0
POLYLINE
  8
RAIL_LINE
 66
     1
 62
     6
  6
CONTINUOUS
  0
VERTEX
  8
RAIL_LINE
 10
517860.00
 20
1148626.00
  0
VERTEX
  8
RAIL_LINE
 10
517882.00
 20
1148652.00
  0
VERTEX
  8
RAIL_LINE
 10
517911.00
 20
1148683.00
  0
VERTEX
  8
RAIL_LINE
 10
517948.00
 20
1148726.00
  0
VERTEX
  8
RAIL_LINE
 10
517998.00
 20
1148767.00
  0
SEQEND
  8
RAIL_LINE
  0
POLYLINE
  8
TRANSMISSION_LINE_CROSS_COUNTRY
 66
     1
 62
     7
  6
DASHDOT
  0
VERTEX
  8
TRANSMISSION_LINE_CROSS_COUNTRY
 10
510409.00
 20
1147861.00
  0
VERTEX
  8
TRANSMISSION_LINE_CROSS_COUNTRY
 10
510364.00
 20
1148086.00
  0
VERTEX
  8
TRANSMISSION_LINE_CROSS_COUNTRY
 10
510191.00
 20
1148470.00
  0
VERTEX
  8
TRANSMISSION_LINE_CROSS_COUNTRY
 10
510005.03
 20
1148876.75
  0
SEQEND
  8
TRANSMISSION_LINE_CROSS_COUNTRY
  0
POLYLINE
  8
ROAD_CENTRELINE
 66
     1
 62
     1
  6
CONTINUOUS
  0
VERTEX
  8
ROAD_CENTRELINE
 10
510409.00
 20
1147861.00
  0
VERTEX
  8
ROAD_CENTRELINE
 10
510406.00
 20
1147861.00
  0
VERTEX
  8
ROAD_CENTRELINE
 10
510263.00
 20
1147869.00
  0
VERTEX
  8
ROAD_CENTRELINE
 10
510186.00
 20
1147869.00
  0
VERTEX
  8
ROAD_CENTRELINE
 10
510088.00
 20
1147871.00
  0
VERTEX
  8
ROAD_CENTRELINE
 10
510000.00
 20
1147873.00
  0
SEQEND
  8
ROAD_CENTRELINE
  0
POLYLINE
  8
TRANSMISSION_LINE_CROSS_COUNTRY
 66
     1
 62
     7
  6
DASHDOT
  0
VERTEX
  8
TRANSMISSION_LINE_CROSS_COUNTRY
 10
510115.00
 20
1148871.00
  0
VERTEX
  8
TRANSMISSION_LINE_CROSS_COUNTRY
 10
510255.00
 20
1148559.00
  0
VERTEX
  8
TRANSMISSION_LINE_CROSS_COUNTRY
 10
510450.00
 20
1148119.00
  0
VERTEX
  8
TRANSMISSION_LINE_CROSS_COUNTRY
 10
510508.00
 20
1147856.00
  0
SEQEND
  8
TRANSMISSION_LINE_CROSS_COUNTRY
  0
POLYLINE
  8
ROAD_CENTRELINE
 66
     1
 62
     1
  6
CONTINUOUS
  0
VERTEX
  8
ROAD_CENTRELINE
 10
510508.00
 20
1147856.00
  0
VERTEX
  8
ROAD_CENTRELINE
 10
510409.00
 20
1147861.00
  0
SEQEND
  8
ROAD_CENTRELINE
  0
POLYLINE
  8
TRANSMISSION_LINE_CROSS_COUNTRY
 66
     1
 62
     7
  6
DASHDOT
  0
VERTEX
  8
TRANSMISSION_LINE_CROSS_COUNTRY
 10
510415.00
 20
1147827.00
  0
VERTEX
  8
TRANSMISSION_LINE_CROSS_COUNTRY
 10
510409.00
 20
1147861.00
  0
SEQEND
  8
TRANSMISSION_LINE_CROSS_COUNTRY
  0
POLYLINE
  8
RAIL_LINE_MULTIPLE_TRACK
 66
     1
 62
     6
  6
CENTER2
  0
VERTEX
  8
RAIL_LINE_MULTIPLE_TRACK
 10
510376.00
 20
1147826.00
  0
VERTEX
  8
RAIL_LINE_MULTIPLE_TRACK
 10
510395.00
 20
1147827.00
  0
VERTEX
  8
RAIL_LINE_MULTIPLE_TRACK
 10
510415.00
 20
1147827.00
  0
SEQEND
  8
RAIL_LINE_MULTIPLE_TRACK
  0
POLYLINE
  8
RAIL_LINE
 66
     1
 62
     6
  6
CONTINUOUS
  0
VERTEX
  8
RAIL_LINE
 10
510376.00
 20
1147826.00
  0
VERTEX
  8
RAIL_LINE
 10
510416.00
 20
1147822.00
  0
SEQEND
  8
RAIL_LINE
  0
POLYLINE
  8
RAIL_LINE_MULTIPLE_TRACK
 66
     1
 62
     6
  6
CENTER2
  0
VERTEX
  8
RAIL_LINE_MULTIPLE_TRACK
 10
510000.00
 20
1147783.00
  0
VERTEX
  8
RAIL_LINE_MULTIPLE_TRACK
 10
510146.00
 20
1147799.00
  0
VERTEX
  8
RAIL_LINE_MULTIPLE_TRACK
 10
510320.00
 20
1147821.00
  0
VERTEX
  8
RAIL_LINE_MULTIPLE_TRACK
 10
510376.00
 20
1147826.00
  0
SEQEND
  8
RAIL_LINE_MULTIPLE_TRACK
  0
POLYLINE
  8
ACCESSWAY_CENTRELINE
 66
     1
 62
     1
  6
DASHED
  0
VERTEX
  8
ACCESSWAY_CENTRELINE
 10
510000.00
 20
1147761.00
  0
VERTEX
  8
ACCESSWAY_CENTRELINE
 10
510029.00
 20
1147758.00
  0
SEQEND
  8
ACCESSWAY_CENTRELINE
  0
POLYLINE
  8
TRAIL
 66
     1
 62
     2
  6
DIVIDE2
  0
VERTEX
  8
TRAIL
 10
510029.00
 20
1147758.00
  0
VERTEX
  8
TRAIL
 10
510044.00
 20
1147745.00
  0
VERTEX
  8
TRAIL
 10
510126.00
 20
1147660.00
  0
VERTEX
  8
TRAIL
 10
510177.00
 20
1147634.00
  0
VERTEX
  8
TRAIL
 10
510194.00
 20
1147624.00
  0
VERTEX
  8
TRAIL
 10
510225.00
 20
1147591.00
  0
VERTEX
  8
TRAIL
 10
510297.00
 20
1147525.00
  0
VERTEX
  8
TRAIL
 10
510326.00
 20
1147518.00
  0
VERTEX
  8
TRAIL
 10
510404.00
 20
1147522.00
  0
VERTEX
  8
TRAIL
 10
510424.00
 20
1147517.00
  0
VERTEX
  8
TRAIL
 10
510444.00
 20
1147463.00
  0
VERTEX
  8
TRAIL
 10
510451.00
 20
1147424.00
  0
VERTEX
  8
TRAIL
 10
510466.00
 20
1147399.00
  0
VERTEX
  8
TRAIL
 10
510514.00
 20
1147365.00
  0
SEQEND
  8
TRAIL
  0
POLYLINE
  8
TRAIL
 66
     1
 62
     2
  6
DIVIDE2
  0
VERTEX
  8
TRAIL
 10
518602.00
 20
1146984.00
  0
VERTEX
  8
TRAIL
 10
518611.00
 20
1147043.00
  0
VERTEX
  8
TRAIL
 10
518631.00
 20
1147098.00
  0
VERTEX
  8
TRAIL
 10
518650.00
 20
1147124.00
  0
VERTEX
  8
TRAIL
 10
518672.00
 20
1147151.00
  0
VERTEX
  8
TRAIL
 10
518706.00
 20
1147178.00
  0
VERTEX
  8
TRAIL
 10
518733.00
 20
1147192.00
  0
VERTEX
  8
TRAIL
 10
518757.00
 20
1147201.00
  0
VERTEX
  8
TRAIL
 10
518770.00
 20
1147206.00
  0
VERTEX
  8
TRAIL
 10
518774.00
 20
1147206.00
  0
SEQEND
  8
TRAIL
  0
POLYLINE
  8
ROAD_CENTRELINE
 66
     1
 62
     1
  6
CONTINUOUS
  0
VERTEX
  8
ROAD_CENTRELINE
 10
518438.00
 20
1146984.00
  0
VERTEX
  8
ROAD_CENTRELINE
 10
518455.00
 20
1146974.00
  0
VERTEX
  8
ROAD_CENTRELINE
 10
518463.00
 20
1146970.00
  0
VERTEX
  8
ROAD_CENTRELINE
 10
518471.00
 20
1146968.00
  0
VERTEX
  8
ROAD_CENTRELINE
 10
518484.00
 20
1146967.00
  0
VERTEX
  8
ROAD_CENTRELINE
 10
518557.00
 20
1146975.00
  0
VERTEX
  8
ROAD_CENTRELINE
 10
518596.00
 20
1146984.00
  0
VERTEX
  8
ROAD_CENTRELINE
 10
518602.00
 20
1146984.00
  0
SEQEND
  8
ROAD_CENTRELINE
  0
POLYLINE
  8
ROAD_CENTRELINE
 66
     1
 62
     1
  6
CONTINUOUS
  0
VERTEX
  8
ROAD_CENTRELINE
 10
516507.00
 20
1147207.00
  0
VERTEX
  8
ROAD_CENTRELINE
 10
516516.00
 20
1147170.00
  0
VERTEX
  8
ROAD_CENTRELINE
 10
516529.00
 20
1147125.00
  0
VERTEX
  8
ROAD_CENTRELINE
 10
516536.00
 20
1147111.00
  0
VERTEX
  8
ROAD_CENTRELINE
 10
516546.00
 20
1147094.00
  0
VERTEX
  8
ROAD_CENTRELINE
 10
516555.00
 20
1147082.00
  0
VERTEX
  8
ROAD_CENTRELINE
 10
516579.00
 20
1147060.00
  0
VERTEX
  8
ROAD_CENTRELINE
 10
516669.00
 20
1146990.00
  0
VERTEX
  8
ROAD_CENTRELINE
 10
516698.00
 20
1146962.00
  0
VERTEX
  8
ROAD_CENTRELINE
 10
516717.00
 20
1146942.00
  0
VERTEX
  8
ROAD_CENTRELINE
 10
516736.00
 20
1146914.00
  0
VERTEX
  8
ROAD_CENTRELINE
 10
516761.00
 20
1146880.00
  0
VERTEX
  8
ROAD_CENTRELINE
 10
516805.00
 20
1146799.00
  0
VERTEX
  8
ROAD_CENTRELINE
 10
516881.00
 20
1146629.00
  0
VERTEX
  8
ROAD_CENTRELINE
 10
516925.00
 20
1146516.00
  0
VERTEX
  8
ROAD_CENTRELINE
 10
516934.00
 20
1146485.00
  0
VERTEX
  8
ROAD_CENTRELINE
 10
516938.00
 20
1146455.00
  0
VERTEX
  8
ROAD_CENTRELINE
 10
516940.00
 20
1146412.00
  0
VERTEX
  8
ROAD_CENTRELINE
 10
516944.00
 20
1146326.00
  0
SEQEND
  8
ROAD_CENTRELINE
  0
POLYLINE
  8
TRANSMISSION_LINE_CROSS_COUNTRY
 66
     1
 62
     7
  6
DASHDOT
  0
VERTEX
  8
TRANSMISSION_LINE_CROSS_COUNTRY
 10
516944.00
 20
1146326.00
  0
VERTEX
  8
TRANSMISSION_LINE_CROSS_COUNTRY
 10
516464.00
 20
1146448.00
  0
VERTEX
  8
TRANSMISSION_LINE_CROSS_COUNTRY
 10
515684.00
 20
1146648.00
  0
VERTEX
  8
TRANSMISSION_LINE_CROSS_COUNTRY
 10
515489.00
 20
1146696.00
  0
VERTEX
  8
TRANSMISSION_LINE_CROSS_COUNTRY
 10
515267.00
 20
1146742.00
  0
VERTEX
  8
TRANSMISSION_LINE_CROSS_COUNTRY
 10
515067.00
 20
1146776.00
  0
VERTEX
  8
TRANSMISSION_LINE_CROSS_COUNTRY
 10
514864.00
 20
1146817.00
  0
VERTEX
  8
TRANSMISSION_LINE_CROSS_COUNTRY
 10
514643.00
 20
1146771.00
  0
VERTEX
  8
TRANSMISSION_LINE_CROSS_COUNTRY
 10
514447.00
 20
1146716.00
  0
VERTEX
  8
TRANSMISSION_LINE_CROSS_COUNTRY
 10
514286.00
 20
1146593.00
  0
VERTEX
  8
TRANSMISSION_LINE_CROSS_COUNTRY
 10
514154.00
 20
1146488.00
  0
SEQEND
  8
TRANSMISSION_LINE_CROSS_COUNTRY
  0
POLYLINE
  8
ROAD_CENTRELINE
 66
     1
 62
     1
  6
CONTINUOUS
  0
VERTEX
  8
ROAD_CENTRELINE
 10
518602.00
 20
1146984.00
  0
VERTEX
  8
ROAD_CENTRELINE
 10
518620.00
 20
1146984.00
  0
VERTEX
  8
ROAD_CENTRELINE
 10
518641.00
 20
1146979.00
  0
VERTEX
  8
ROAD_CENTRELINE
 10
518655.00
 20
1146969.00
  0
VERTEX
  8
ROAD_CENTRELINE
 10
518660.00
 20
1146961.00
  0
VERTEX
  8
ROAD_CENTRELINE
 10
518667.00
 20
1146935.00
  0
VERTEX
  8
ROAD_CENTRELINE
 10
518671.00
 20
1146903.00
  0
VERTEX
  8
ROAD_CENTRELINE
 10
518673.00
 20
1146844.00
  0
VERTEX
  8
ROAD_CENTRELINE
 10
518671.00
 20
1146798.00
  0
VERTEX
  8
ROAD_CENTRELINE
 10
518665.00
 20
1146780.00
  0
VERTEX
  8
ROAD_CENTRELINE
 10
518656.00
 20
1146751.00
  0
VERTEX
  8
ROAD_CENTRELINE
 10
518645.00
 20
1146683.00
  0
VERTEX
  8
ROAD_CENTRELINE
 10
518630.00
 20
1146600.00
  0
VERTEX
  8
ROAD_CENTRELINE
 10
518623.00
 20
1146544.00
  0
VERTEX
  8
ROAD_CENTRELINE
 10
518613.00
 20
1146512.00
  0
VERTEX
  8
ROAD_CENTRELINE
 10
518611.00
 20
1146489.00
  0
VERTEX
  8
ROAD_CENTRELINE
 10
518611.00
 20
1146478.00
  0
VERTEX
  8
ROAD_CENTRELINE
 10
518616.00
 20
1146459.00
  0
VERTEX
  8
ROAD_CENTRELINE
 10
518627.00
 20
1146438.00
  0
VERTEX
  8
ROAD_CENTRELINE
 10
518643.00
 20
1146413.00
  0
VERTEX
  8
ROAD_CENTRELINE
 10
518652.00
 20
1146396.00
  0
VERTEX
  8
ROAD_CENTRELINE
 10
518655.00
 20
1146387.00
  0
VERTEX
  8
ROAD_CENTRELINE
 10
518655.00
 20
1146369.00
  0
VERTEX
  8
ROAD_CENTRELINE
 10
518654.00
 20
1146341.00
  0
VERTEX
  8
ROAD_CENTRELINE
 10
518659.00
 20
1146303.00
  0
VERTEX
  8
ROAD_CENTRELINE
 10
518665.00
 20
1146278.00
  0
VERTEX
  8
ROAD_CENTRELINE
 10
518690.00
 20
1146252.00
  0
VERTEX
  8
ROAD_CENTRELINE
 10
518720.00
 20
1146231.00
  0
VERTEX
  8
ROAD_CENTRELINE
 10
518734.00
 20
1146229.00
  0
VERTEX
  8
ROAD_CENTRELINE
 10
518755.00
 20
1146232.00
  0
VERTEX
  8
ROAD_CENTRELINE
 10
518792.00
 20
1146245.00
  0
VERTEX
  8
ROAD_CENTRELINE
 10
518814.00
 20
1146249.00
  0
VERTEX
  8
ROAD_CENTRELINE
 10
518831.00
 20
1146253.00
  0
VERTEX
  8
ROAD_CENTRELINE
 10
518846.00
 20
1146251.00
  0
VERTEX
  8
ROAD_CENTRELINE
 10
518872.00
 20
1146246.00
  0
VERTEX
  8
ROAD_CENTRELINE
 10
518922.00
 20
1146231.00
  0
VERTEX
  8
ROAD_CENTRELINE
 10
519006.00
 20
1146209.00
  0
VERTEX
  8
ROAD_CENTRELINE
 10
519072.00
 20
1146203.00
  0
VERTEX
  8
ROAD_CENTRELINE
 10
519117.00
 20
1146197.00
  0
VERTEX
  8
ROAD_CENTRELINE
 10
519193.00
 20
1146197.00
  0
VERTEX
  8
ROAD_CENTRELINE
 10
519284.00
 20
1146189.00
  0
VERTEX
  8
ROAD_CENTRELINE
 10
519306.00
 20
1146190.00
  0
VERTEX
  8
ROAD_CENTRELINE
 10
519318.00
 20
1146196.00
  0
VERTEX
  8
ROAD_CENTRELINE
 10
519379.00
 20
1146213.00
  0
VERTEX
  8
ROAD_CENTRELINE
 10
519406.00
 20
1146213.00
  0
VERTEX
  8
ROAD_CENTRELINE
 10
519432.00
 20
1146211.00
  0
VERTEX
  8
ROAD_CENTRELINE
 10
519534.00
 20
1146182.00
  0
VERTEX
  8
ROAD_CENTRELINE
 10
519603.00
 20
1146164.00
  0
VERTEX
  8
ROAD_CENTRELINE
 10
519673.00
 20
1146146.00
  0
VERTEX
  8
ROAD_CENTRELINE
 10
519738.00
 20
1146129.00
  0
VERTEX
  8
ROAD_CENTRELINE
 10
519750.00
 20
1146124.00
  0
VERTEX
  8
ROAD_CENTRELINE
 10
519770.00
 20
1146113.00
  0
VERTEX
  8
ROAD_CENTRELINE
 10
519824.00
 20
1146063.00
  0
VERTEX
  8
ROAD_CENTRELINE
 10
519865.00
 20
1146025.00
  0
VERTEX
  8
ROAD_CENTRELINE
 10
519882.00
 20
1146012.00
  0
VERTEX
  8
ROAD_CENTRELINE
 10
519895.00
 20
1146005.00
  0
VERTEX
  8
ROAD_CENTRELINE
 10
519903.00
 20
1145999.00
  0
VERTEX
  8
ROAD_CENTRELINE
 10
519907.00
 20
1145995.00
  0
VERTEX
  8
ROAD_CENTRELINE
 10
519913.00
 20
1145976.00
  0
VERTEX
  8
ROAD_CENTRELINE
 10
519909.00
 20
1145960.00
  0
VERTEX
  8
ROAD_CENTRELINE
 10
519902.00
 20
1145932.00
  0
VERTEX
  8
ROAD_CENTRELINE
 10
519889.00
 20
1145884.00
  0
VERTEX
  8
ROAD_CENTRELINE
 10
519889.00
 20
1145858.00
  0
VERTEX
  8
ROAD_CENTRELINE
 10
519889.00
 20
1145824.00
  0
VERTEX
  8
ROAD_CENTRELINE
 10
519894.00
 20
1145730.00
  0
VERTEX
  8
ROAD_CENTRELINE
 10
519893.00
 20
1145686.00
  0
VERTEX
  8
ROAD_CENTRELINE
 10
519892.00
 20
1145649.00
  0
VERTEX
  8
ROAD_CENTRELINE
 10
519896.00
 20
1145618.00
  0
VERTEX
  8
ROAD_CENTRELINE
 10
519902.00
 20
1145599.00
  0
VERTEX
  8
ROAD_CENTRELINE
 10
519912.00
 20
1145582.00
  0
VERTEX
  8
ROAD_CENTRELINE
 10
519924.00
 20
1145570.00
  0
VERTEX
  8
ROAD_CENTRELINE
 10
519940.00
 20
1145557.00
  0
VERTEX
  8
ROAD_CENTRELINE
 10
519961.00
 20
1145549.00
  0
VERTEX
  8
ROAD_CENTRELINE
 10
519970.00
 20
1145548.00
  0
VERTEX
  8
ROAD_CENTRELINE
 10
520000.00
 20
1145541.00
  0
SEQEND
  8
ROAD_CENTRELINE
  0
POLYLINE
  8
TRANSMISSION_LINE_CROSS_COUNTRY
 66
     1
 62
     7
  6
DASHDOT
  0
VERTEX
  8
TRANSMISSION_LINE_CROSS_COUNTRY
 10
520000.00
 20
1145437.00
  0
VERTEX
  8
TRANSMISSION_LINE_CROSS_COUNTRY
 10
519558.00
 20
1145562.00
  0
VERTEX
  8
TRANSMISSION_LINE_CROSS_COUNTRY
 10
518795.00
 20
1145777.00
  0
VERTEX
  8
TRANSMISSION_LINE_CROSS_COUNTRY
 10
518012.00
 20
1146022.00
  0
VERTEX
  8
TRANSMISSION_LINE_CROSS_COUNTRY
 10
517246.00
 20
1146250.00
  0
VERTEX
  8
TRANSMISSION_LINE_CROSS_COUNTRY
 10
516944.00
 20
1146326.00
  0
SEQEND
  8
TRANSMISSION_LINE_CROSS_COUNTRY
  0
POLYLINE
  8
TRAIL
 66
     1
 62
     2
  6
DIVIDE2
  0
VERTEX
  8
TRAIL
 10
516931.00
 20
1145144.00
  0
VERTEX
  8
TRAIL
 10
516957.00
 20
1145146.00
  0
VERTEX
  8
TRAIL
 10
516987.00
 20
1145157.00
  0
VERTEX
  8
TRAIL
 10
517004.00
 20
1145174.00
  0
VERTEX
  8
TRAIL
 10
517048.00
 20
1145231.00
  0
VERTEX
  8
TRAIL
 10
517171.00
 20
1145355.00
  0
VERTEX
  8
TRAIL
 10
517260.00
 20
1145418.00
  0
VERTEX
  8
TRAIL
 10
517300.00
 20
1145435.00
  0
VERTEX
  8
TRAIL
 10
517332.00
 20
1145440.00
  0
VERTEX
  8
TRAIL
 10
517355.00
 20
1145436.00
  0
VERTEX
  8
TRAIL
 10
517373.00
 20
1145426.00
  0
VERTEX
  8
TRAIL
 10
517393.00
 20
1145424.00
  0
VERTEX
  8
TRAIL
 10
517429.00
 20
1145423.00
  0
VERTEX
  8
TRAIL
 10
517467.00
 20
1145426.00
  0
VERTEX
  8
TRAIL
 10
517491.00
 20
1145428.00
  0
VERTEX
  8
TRAIL
 10
517506.00
 20
1145430.00
  0
SEQEND
  8
TRAIL
  0
POLYLINE
  8
ROAD_CENTRELINE
 66
     1
 62
     1
  6
CONTINUOUS
  0
VERTEX
  8
ROAD_CENTRELINE
 10
516944.00
 20
1146326.00
  0
VERTEX
  8
ROAD_CENTRELINE
 10
516949.00
 20
1146227.00
  0
VERTEX
  8
ROAD_CENTRELINE
 10
516946.00
 20
1146183.00
  0
VERTEX
  8
ROAD_CENTRELINE
 10
516938.00
 20
1146138.00
  0
VERTEX
  8
ROAD_CENTRELINE
 10
516911.00
 20
1146062.00
  0
VERTEX
  8
ROAD_CENTRELINE
 10
516901.00
 20
1146037.00
  0
VERTEX
  8
ROAD_CENTRELINE
 10
516892.00
 20
1146011.00
  0
VERTEX
  8
ROAD_CENTRELINE
 10
516889.00
 20
1145986.00
  0
VERTEX
  8
ROAD_CENTRELINE
 10
516890.00
 20
1145974.00
  0
VERTEX
  8
ROAD_CENTRELINE
 10
516896.00
 20
1145948.00
  0
VERTEX
  8
ROAD_CENTRELINE
 10
516911.00
 20
1145900.00
  0
VERTEX
  8
ROAD_CENTRELINE
 10
516945.00
 20
1145793.00
  0
VERTEX
  8
ROAD_CENTRELINE
 10
516950.00
 20
1145768.00
  0
VERTEX
  8
ROAD_CENTRELINE
 10
516952.00
 20
1145753.00
  0
VERTEX
  8
ROAD_CENTRELINE
 10
516952.00
 20
1145713.00
  0
VERTEX
  8
ROAD_CENTRELINE
 10
516948.00
 20
1145547.00
  0
VERTEX
  8
ROAD_CENTRELINE
 10
516943.00
 20
1145361.00
  0
VERTEX
  8
ROAD_CENTRELINE
 10
516938.00
 20
1145284.00
  0
VERTEX
  8
ROAD_CENTRELINE
 10
516931.00
 20
1145144.00
  0
SEQEND
  8
ROAD_CENTRELINE
  0
POLYLINE
  8
TRAIL
 66
     1
 62
     2
  6
DIVIDE2
  0
VERTEX
  8
TRAIL
 10
519838.00
 20
1143678.00
  0
VERTEX
  8
TRAIL
 10
519888.00
 20
1143754.00
  0
VERTEX
  8
TRAIL
 10
519928.00
 20
1143803.00
  0
SEQEND
  8
TRAIL
  0
POLYLINE
  8
ACCESSWAY_CENTRELINE
 66
     1
 62
     1
  6
DASHED
  0
VERTEX
  8
ACCESSWAY_CENTRELINE
 10
519561.00
 20
1143708.00
  0
VERTEX
  8
ACCESSWAY_CENTRELINE
 10
519573.00
 20
1143699.00
  0
VERTEX
  8
ACCESSWAY_CENTRELINE
 10
519606.00
 20
1143677.00
  0
VERTEX
  8
ACCESSWAY_CENTRELINE
 10
519631.00
 20
1143676.00
  0
VERTEX
  8
ACCESSWAY_CENTRELINE
 10
519654.00
 20
1143676.00
  0
VERTEX
  8
ACCESSWAY_CENTRELINE
 10
519692.00
 20
1143683.00
  0
VERTEX
  8
ACCESSWAY_CENTRELINE
 10
519716.00
 20
1143686.00
  0
VERTEX
  8
ACCESSWAY_CENTRELINE
 10
519732.00
 20
1143686.00
  0
VERTEX
  8
ACCESSWAY_CENTRELINE
 10
519838.00
 20
1143678.00
  0
SEQEND
  8
ACCESSWAY_CENTRELINE
  0
POLYLINE
  8
ACCESSWAY_CENTRELINE
 66
     1
 62
     1
  6
DASHED
  0
VERTEX
  8
ACCESSWAY_CENTRELINE
 10
519838.00
 20
1143678.00
  0
VERTEX
  8
ACCESSWAY_CENTRELINE
 10
519852.00
 20
1143677.00
  0
VERTEX
  8
ACCESSWAY_CENTRELINE
 10
519913.00
 20
1143671.00
  0
VERTEX
  8
ACCESSWAY_CENTRELINE
 10
520000.00
 20
1143666.00
  0
SEQEND
  8
ACCESSWAY_CENTRELINE
  0
POLYLINE
  8
ACCESSWAY_CENTRELINE
 66
     1
 62
     1
  6
DASHED
  0
VERTEX
  8
ACCESSWAY_CENTRELINE
 10
519846.00
 20
1142139.00
  0
VERTEX
  8
ACCESSWAY_CENTRELINE
 10
519924.00
 20
1142144.00
  0
VERTEX
  8
ACCESSWAY_CENTRELINE
 10
520000.00
 20
1142149.00
  0
SEQEND
  8
ACCESSWAY_CENTRELINE
  0
POLYLINE
  8
ACCESSWAY_CENTRELINE
 66
     1
 62
     1
  6
DASHED
  0
VERTEX
  8
ACCESSWAY_CENTRELINE
 10
519125.00
 20
1142916.00
  0
VERTEX
  8
ACCESSWAY_CENTRELINE
 10
519099.00
 20
1142879.00
  0
VERTEX
  8
ACCESSWAY_CENTRELINE
 10
519091.00
 20
1142865.00
  0
VERTEX
  8
ACCESSWAY_CENTRELINE
 10
519079.00
 20
1142835.00
  0
VERTEX
  8
ACCESSWAY_CENTRELINE
 10
519072.00
 20
1142810.00
  0
VERTEX
  8
ACCESSWAY_CENTRELINE
 10
519070.00
 20
1142790.00
  0
VERTEX
  8
ACCESSWAY_CENTRELINE
 10
519074.00
 20
1142772.00
  0
VERTEX
  8
ACCESSWAY_CENTRELINE
 10
519085.00
 20
1142754.00
  0
VERTEX
  8
ACCESSWAY_CENTRELINE
 10
519103.00
 20
1142729.00
  0
VERTEX
  8
ACCESSWAY_CENTRELINE
 10
519189.00
 20
1142661.00
  0
VERTEX
  8
ACCESSWAY_CENTRELINE
 10
519233.00
 20
1142626.00
  0
VERTEX
  8
ACCESSWAY_CENTRELINE
 10
519280.00
 20
1142610.00
  0
VERTEX
  8
ACCESSWAY_CENTRELINE
 10
519299.00
 20
1142610.00
  0
VERTEX
  8
ACCESSWAY_CENTRELINE
 10
519318.00
 20
1142613.00
  0
VERTEX
  8
ACCESSWAY_CENTRELINE
 10
519355.00
 20
1142620.00
  0
VERTEX
  8
ACCESSWAY_CENTRELINE
 10
519445.00
 20
1142640.00
  0
VERTEX
  8
ACCESSWAY_CENTRELINE
 10
519518.00
 20
1142658.00
  0
VERTEX
  8
ACCESSWAY_CENTRELINE
 10
519547.00
 20
1142666.00
  0
VERTEX
  8
ACCESSWAY_CENTRELINE
 10
519581.00
 20
1142663.00
  0
VERTEX
  8
ACCESSWAY_CENTRELINE
 10
519595.00
 20
1142658.00
  0
VERTEX
  8
ACCESSWAY_CENTRELINE
 10
519602.00
 20
1142650.00
  0
VERTEX
  8
ACCESSWAY_CENTRELINE
 10
519605.00
 20
1142639.00
  0
VERTEX
  8
ACCESSWAY_CENTRELINE
 10
519608.00
 20
1142622.00
  0
VERTEX
  8
ACCESSWAY_CENTRELINE
 10
519612.00
 20
1142600.00
  0
VERTEX
  8
ACCESSWAY_CENTRELINE
 10
519641.00
 20
1142525.00
  0
VERTEX
  8
ACCESSWAY_CENTRELINE
 10
519678.00
 20
1142459.00
  0
VERTEX
  8
ACCESSWAY_CENTRELINE
 10
519768.00
 20
1142301.00
  0
VERTEX
  8
ACCESSWAY_CENTRELINE
 10
519821.00
 20
1142200.00
  0
VERTEX
  8
ACCESSWAY_CENTRELINE
 10
519846.00
 20
1142139.00
  0
SEQEND
  8
ACCESSWAY_CENTRELINE
  0
POLYLINE
  8
ACCESSWAY_CENTRELINE
 66
     1
 62
     1
  6
DASHED
  0
VERTEX
  8
ACCESSWAY_CENTRELINE
 10
519846.00
 20
1142139.00
  0
VERTEX
  8
ACCESSWAY_CENTRELINE
 10
519853.00
 20
1142121.00
  0
VERTEX
  8
ACCESSWAY_CENTRELINE
 10
519883.00
 20
1142071.00
  0
VERTEX
  8
ACCESSWAY_CENTRELINE
 10
519896.00
 20
1142043.00
  0
VERTEX
  8
ACCESSWAY_CENTRELINE
 10
519901.00
 20
1142029.00
  0
VERTEX
  8
ACCESSWAY_CENTRELINE
 10
519904.00
 20
1142006.00
  0
VERTEX
  8
ACCESSWAY_CENTRELINE
 10
519906.00
 20
1141973.00
  0
VERTEX
  8
ACCESSWAY_CENTRELINE
 10
519898.00
 20
1141899.00
  0
VERTEX
  8
ACCESSWAY_CENTRELINE
 10
519891.00
 20
1141765.00
  0
SEQEND
  8
ACCESSWAY_CENTRELINE
  0
POLYLINE
  8
ACCESSWAY_CENTRELINE
 66
     1
 62
     1
  6
DASHED
  0
VERTEX
  8
ACCESSWAY_CENTRELINE
 10
519891.00
 20
1141765.00
  0
VERTEX
  8
ACCESSWAY_CENTRELINE
 10
519890.00
 20
1141749.00
  0
VERTEX
  8
ACCESSWAY_CENTRELINE
 10
519887.00
 20
1141700.00
  0
VERTEX
  8
ACCESSWAY_CENTRELINE
 10
519887.00
 20
1141626.00
  0
SEQEND
  8
ACCESSWAY_CENTRELINE
  0
POLYLINE
  8
TRAIL
 66
     1
 62
     2
  6
DIVIDE2
  0
VERTEX
  8
TRAIL
 10
519887.00
 20
1141626.00
  0
VERTEX
  8
TRAIL
 10
519943.00
 20
1141626.00
  0
VERTEX
  8
TRAIL
 10
520000.00
 20
1141633.00
  0
SEQEND
  8
TRAIL
  0
POLYLINE
  8
ACCESSWAY_CENTRELINE
 66
     1
 62
     1
  6
DASHED
  0
VERTEX
  8
ACCESSWAY_CENTRELINE
 10
519887.00
 20
1141626.00
  0
VERTEX
  8
ACCESSWAY_CENTRELINE
 10
519886.00
 20
1141512.00
  0
VERTEX
  8
ACCESSWAY_CENTRELINE
 10
519888.00
 20
1141364.00
  0
VERTEX
  8
ACCESSWAY_CENTRELINE
 10
519887.00
 20
1141341.00
  0
SEQEND
  8
ACCESSWAY_CENTRELINE
  0
POLYLINE
  8
ACCESSWAY_CENTRELINE
 66
     1
 62
     1
  6
DASHED
  0
VERTEX
  8
ACCESSWAY_CENTRELINE
 10
519887.00
 20
1141341.00
  0
VERTEX
  8
ACCESSWAY_CENTRELINE
 10
519946.00
 20
1141340.00
  0
VERTEX
  8
ACCESSWAY_CENTRELINE
 10
520000.00
 20
1141344.00
  0
SEQEND
  8
ACCESSWAY_CENTRELINE
  0
POLYLINE
  8
ACCESSWAY_CENTRELINE
 66
     1
 62
     1
  6
DASHED
  0
VERTEX
  8
ACCESSWAY_CENTRELINE
 10
519891.00
 20
1141765.00
  0
VERTEX
  8
ACCESSWAY_CENTRELINE
 10
519818.00
 20
1141751.00
  0
VERTEX
  8
ACCESSWAY_CENTRELINE
 10
519761.00
 20
1141741.00
  0
VERTEX
  8
ACCESSWAY_CENTRELINE
 10
519726.00
 20
1141731.00
  0
VERTEX
  8
ACCESSWAY_CENTRELINE
 10
519712.00
 20
1141724.00
  0
VERTEX
  8
ACCESSWAY_CENTRELINE
 10
519686.00
 20
1141709.00
  0
VERTEX
  8
ACCESSWAY_CENTRELINE
 10
519625.00
 20
1141678.00
  0
VERTEX
  8
ACCESSWAY_CENTRELINE
 10
519607.00
 20
1141672.00
  0
VERTEX
  8
ACCESSWAY_CENTRELINE
 10
519587.00
 20
1141671.00
  0
VERTEX
  8
ACCESSWAY_CENTRELINE
 10
519512.00
 20
1141678.00
  0
VERTEX
  8
ACCESSWAY_CENTRELINE
 10
519477.00
 20
1141687.00
  0
VERTEX
  8
ACCESSWAY_CENTRELINE
 10
519449.00
 20
1141693.00
  0
VERTEX
  8
ACCESSWAY_CENTRELINE
 10
519432.00
 20
1141690.00
  0
VERTEX
  8
ACCESSWAY_CENTRELINE
 10
519409.00
 20
1141679.00
  0
VERTEX
  8
ACCESSWAY_CENTRELINE
 10
519386.00
 20
1141668.00
  0
VERTEX
  8
ACCESSWAY_CENTRELINE
 10
519317.00
 20
1141617.00
  0
VERTEX
  8
ACCESSWAY_CENTRELINE
 10
519282.00
 20
1141587.00
  0
VERTEX
  8
ACCESSWAY_CENTRELINE
 10
519184.00
 20
1141526.00
  0
VERTEX
  8
ACCESSWAY_CENTRELINE
 10
519079.00
 20
1141480.00
  0
VERTEX
  8
ACCESSWAY_CENTRELINE
 10
519004.00
 20
1141448.00
  0
VERTEX
  8
ACCESSWAY_CENTRELINE
 10
518954.00
 20
1141422.00
  0
VERTEX
  8
ACCESSWAY_CENTRELINE
 10
518845.00
 20
1141391.00
  0
VERTEX
  8
ACCESSWAY_CENTRELINE
 10
518770.00
 20
1141361.00
  0
VERTEX
  8
ACCESSWAY_CENTRELINE
 10
518706.00
 20
1141339.00
  0
VERTEX
  8
ACCESSWAY_CENTRELINE
 10
518680.00
 20
1141335.00
  0
VERTEX
  8
ACCESSWAY_CENTRELINE
 10
518671.00
 20
1141334.00
  0
SEQEND
  8
ACCESSWAY_CENTRELINE
  0
POLYLINE
  8
ROAD_CENTRELINE
 66
     1
 62
     1
  6
CONTINUOUS
  0
VERTEX
  8
ROAD_CENTRELINE
 10
510410.00
 20
1141333.00
  0
VERTEX
  8
ROAD_CENTRELINE
 10
510405.00
 20
1141337.00
  0
VERTEX
  8
ROAD_CENTRELINE
 10
510340.00
 20
1141361.00
  0
VERTEX
  8
ROAD_CENTRELINE
 10
510291.00
 20
1141367.00
  0
VERTEX
  8
ROAD_CENTRELINE
 10
510273.00
 20
1141365.00
  0
VERTEX
  8
ROAD_CENTRELINE
 10
510254.00
 20
1141359.00
  0
VERTEX
  8
ROAD_CENTRELINE
 10
510247.00
 20
1141357.00
  0
VERTEX
  8
ROAD_CENTRELINE
 10
510239.00
 20
1141352.00
  0
VERTEX
  8
ROAD_CENTRELINE
 10
510202.00
 20
1141324.00
  0
VERTEX
  8
ROAD_CENTRELINE
 10
510138.00
 20
1141247.00
  0
VERTEX
  8
ROAD_CENTRELINE
 10
510109.00
 20
1141214.00
  0
VERTEX
  8
ROAD_CENTRELINE
 10
510098.00
 20
1141195.00
  0
VERTEX
  8
ROAD_CENTRELINE
 10
510091.00
 20
1141182.00
  0
VERTEX
  8
ROAD_CENTRELINE
 10
510062.00
 20
1141119.00
  0
VERTEX
  8
ROAD_CENTRELINE
 10
510050.00
 20
1141104.00
  0
VERTEX
  8
ROAD_CENTRELINE
 10
510039.00
 20
1141089.00
  0
VERTEX
  8
ROAD_CENTRELINE
 10
510028.00
 20
1141076.00
  0
VERTEX
  8
ROAD_CENTRELINE
 10
510020.00
 20
1141070.00
  0
VERTEX
  8
ROAD_CENTRELINE
 10
510000.00
 20
1141048.00
  0
SEQEND
  8
ROAD_CENTRELINE
  0
POLYLINE
  8
ACCESSWAY_CENTRELINE
 66
     1
 62
     1
  6
DASHED
  0
VERTEX
  8
ACCESSWAY_CENTRELINE
 10
519887.00
 20
1141341.00
  0
VERTEX
  8
ACCESSWAY_CENTRELINE
 10
519883.00
 20
1141291.00
  0
VERTEX
  8
ACCESSWAY_CENTRELINE
 10
519882.00
 20
1141193.00
  0
VERTEX
  8
ACCESSWAY_CENTRELINE
 10
519880.00
 20
1141167.00
  0
VERTEX
  8
ACCESSWAY_CENTRELINE
 10
519873.00
 20
1141146.00
  0
VERTEX
  8
ACCESSWAY_CENTRELINE
 10
519850.00
 20
1141093.00
  0
VERTEX
  8
ACCESSWAY_CENTRELINE
 10
519841.00
 20
1141076.00
  0
VERTEX
  8
ACCESSWAY_CENTRELINE
 10
519834.00
 20
1141052.00
  0
VERTEX
  8
ACCESSWAY_CENTRELINE
 10
519829.00
 20
1141036.00
  0
SEQEND
  8
ACCESSWAY_CENTRELINE
  0
POLYLINE
  8
ACCESSWAY_CENTRELINE
 66
     1
 62
     1
  6
DASHED
  0
VERTEX
  8
ACCESSWAY_CENTRELINE
 10
510410.00
 20
1141333.00
  0
VERTEX
  8
ACCESSWAY_CENTRELINE
 10
510465.00
 20
1141326.00
  0
VERTEX
  8
ACCESSWAY_CENTRELINE
 10
510542.00
 20
1141285.00
  0
VERTEX
  8
ACCESSWAY_CENTRELINE
 10
510560.00
 20
1141269.00
  0
VERTEX
  8
ACCESSWAY_CENTRELINE
 10
510570.00
 20
1141253.00
  0
VERTEX
  8
ACCESSWAY_CENTRELINE
 10
510574.00
 20
1141228.00
  0
VERTEX
  8
ACCESSWAY_CENTRELINE
 10
510567.00
 20
1141179.00
  0
VERTEX
  8
ACCESSWAY_CENTRELINE
 10
510555.00
 20
1141136.00
  0
VERTEX
  8
ACCESSWAY_CENTRELINE
 10
510553.00
 20
1141110.00
  0
VERTEX
  8
ACCESSWAY_CENTRELINE
 10
510556.00
 20
1141095.00
  0
VERTEX
  8
ACCESSWAY_CENTRELINE
 10
510568.00
 20
1141075.00
  0
VERTEX
  8
ACCESSWAY_CENTRELINE
 10
510597.00
 20
1141027.00
  0
VERTEX
  8
ACCESSWAY_CENTRELINE
 10
510607.00
 20
1141005.00
  0
VERTEX
  8
ACCESSWAY_CENTRELINE
 10
510608.00
 20
1140981.00
  0
VERTEX
  8
ACCESSWAY_CENTRELINE
 10
510607.00
 20
1140967.00
  0
VERTEX
  8
ACCESSWAY_CENTRELINE
 10
510599.00
 20
1140936.00
  0
SEQEND
  8
ACCESSWAY_CENTRELINE
  0
POLYLINE
  8
ROAD_CENTRELINE
 66
     1
 62
     1
  6
CONTINUOUS
  0
VERTEX
  8
ROAD_CENTRELINE
 10
510599.00
 20
1140936.00
  0
VERTEX
  8
ROAD_CENTRELINE
 10
510589.00
 20
1140955.00
  0
VERTEX
  8
ROAD_CENTRELINE
 10
510565.00
 20
1141014.00
  0
VERTEX
  8
ROAD_CENTRELINE
 10
510527.00
 20
1141096.00
  0
VERTEX
  8
ROAD_CENTRELINE
 10
510495.00
 20
1141173.00
  0
VERTEX
  8
ROAD_CENTRELINE
 10
510460.00
 20
1141253.00
  0
VERTEX
  8
ROAD_CENTRELINE
 10
510440.00
 20
1141296.00
  0
VERTEX
  8
ROAD_CENTRELINE
 10
510423.00
 20
1141322.00
  0
VERTEX
  8
ROAD_CENTRELINE
 10
510415.00
 20
1141329.00
  0
VERTEX
  8
ROAD_CENTRELINE
 10
510410.00
 20
1141333.00
  0
SEQEND
  8
ROAD_CENTRELINE
  0
POLYLINE
  8
TRAIL
 66
     1
 62
     2
  6
DIVIDE2
  0
VERTEX
  8
TRAIL
 10
519829.00
 20
1141036.00
  0
VERTEX
  8
TRAIL
 10
519875.00
 20
1140999.00
  0
VERTEX
  8
TRAIL
 10
519925.00
 20
1140952.00
  0
VERTEX
  8
TRAIL
 10
519956.00
 20
1140923.00
  0
VERTEX
  8
TRAIL
 10
519965.00
 20
1140916.00
  0
VERTEX
  8
TRAIL
 10
519975.00
 20
1140915.00
  0
VERTEX
  8
TRAIL
 10
520000.00
 20
1140915.00
  0
SEQEND
  8
TRAIL
  0
POLYLINE
  8
ACCESSWAY_CENTRELINE
 66
     1
 62
     1
  6
DASHED
  0
VERTEX
  8
ACCESSWAY_CENTRELINE
 10
519829.00
 20
1141036.00
  0
VERTEX
  8
ACCESSWAY_CENTRELINE
 10
519823.00
 20
1141012.00
  0
VERTEX
  8
ACCESSWAY_CENTRELINE
 10
519803.00
 20
1140954.00
  0
VERTEX
  8
ACCESSWAY_CENTRELINE
 10
519782.00
 20
1140899.00
  0
VERTEX
  8
ACCESSWAY_CENTRELINE
 10
519771.00
 20
1140886.00
  0
VERTEX
  8
ACCESSWAY_CENTRELINE
 10
519756.00
 20
1140865.00
  0
VERTEX
  8
ACCESSWAY_CENTRELINE
 10
519703.00
 20
1140816.00
  0
VERTEX
  8
ACCESSWAY_CENTRELINE
 10
519628.00
 20
1140720.00
  0
VERTEX
  8
ACCESSWAY_CENTRELINE
 10
519598.00
 20
1140682.00
  0
VERTEX
  8
ACCESSWAY_CENTRELINE
 10
519539.00
 20
1140588.00
  0
VERTEX
  8
ACCESSWAY_CENTRELINE
 10
519517.00
 20
1140561.00
  0
VERTEX
  8
ACCESSWAY_CENTRELINE
 10
519509.00
 20
1140555.00
  0
VERTEX
  8
ACCESSWAY_CENTRELINE
 10
519496.00
 20
1140550.00
  0
VERTEX
  8
ACCESSWAY_CENTRELINE
 10
519483.00
 20
1140546.00
  0
VERTEX
  8
ACCESSWAY_CENTRELINE
 10
519470.00
 20
1140546.00
  0
SEQEND
  8
ACCESSWAY_CENTRELINE
  0
POLYLINE
  8
RAIL_LINE
 66
     1
 62
     6
  6
CONTINUOUS
  0
VERTEX
  8
RAIL_LINE
 10
510667.00
 20
1146675.00
  0
VERTEX
  8
RAIL_LINE
 10
510616.00
 20
1146553.00
  0
VERTEX
  8
RAIL_LINE
 10
510572.00
 20
1146439.00
  0
VERTEX
  8
RAIL_LINE
 10
510533.00
 20
1146328.00
  0
VERTEX
  8
RAIL_LINE
 10
510525.00
 20
1146300.00
  0
VERTEX
  8
RAIL_LINE
 10
510510.00
 20
1146208.00
  0
VERTEX
  8
RAIL_LINE
 10
510490.00
 20
1146083.00
  0
VERTEX
  8
RAIL_LINE
 10
510472.00
 20
1146012.00
  0
VERTEX
  8
RAIL_LINE
 10
510413.00
 20
1145831.00
  0
VERTEX
  8
RAIL_LINE
 10
510338.00
 20
1145597.00
  0
VERTEX
  8
RAIL_LINE
 10
510305.00
 20
1145499.00
  0
VERTEX
  8
RAIL_LINE
 10
510278.00
 20
1145438.00
  0
VERTEX
  8
RAIL_LINE
 10
510179.00
 20
1145289.00
  0
VERTEX
  8
RAIL_LINE
 10
510110.00
 20
1145216.00
  0
VERTEX
  8
RAIL_LINE
 10
510075.00
 20
1145166.00
  0
VERTEX
  8
RAIL_LINE
 10
510040.00
 20
1145082.00
  0
VERTEX
  8
RAIL_LINE
 10
510034.00
 20
1145030.00
  0
VERTEX
  8
RAIL_LINE
 10
510035.00
 20
1144966.00
  0
VERTEX
  8
RAIL_LINE
 10
510035.00
 20
1144918.00
  0
VERTEX
  8
RAIL_LINE
 10
510045.00
 20
1144873.00
  0
VERTEX
  8
RAIL_LINE
 10
510051.00
 20
1144810.00
  0
VERTEX
  8
RAIL_LINE
 10
510080.00
 20
1144683.00
  0
VERTEX
  8
RAIL_LINE
 10
510109.00
 20
1144495.00
  0
VERTEX
  8
RAIL_LINE
 10
510156.00
 20
1144227.00
  0
VERTEX
  8
RAIL_LINE
 10
510195.00
 20
1144019.00
  0
VERTEX
  8
RAIL_LINE
 10
510220.00
 20
1143895.00
  0
VERTEX
  8
RAIL_LINE
 10
510231.00
 20
1143835.00
  0
VERTEX
  8
RAIL_LINE
 10
510243.00
 20
1143762.00
  0
VERTEX
  8
RAIL_LINE
 10
510250.00
 20
1143722.00
  0
VERTEX
  8
RAIL_LINE
 10
510258.00
 20
1143688.00
  0
VERTEX
  8
RAIL_LINE
 10
510268.00
 20
1143653.00
  0
VERTEX
  8
RAIL_LINE
 10
510279.00
 20
1143620.00
  0
VERTEX
  8
RAIL_LINE
 10
510291.00
 20
1143592.00
  0
VERTEX
  8
RAIL_LINE
 10
510305.00
 20
1143560.00
  0
VERTEX
  8
RAIL_LINE
 10
510326.00
 20
1143517.00
  0
VERTEX
  8
RAIL_LINE
 10
510354.00
 20
1143467.00
  0
VERTEX
  8
RAIL_LINE
 10
510391.00
 20
1143417.00
  0
VERTEX
  8
RAIL_LINE
 10
510425.00
 20
1143375.00
  0
VERTEX
  8
RAIL_LINE
 10
510467.00
 20
1143339.00
  0
VERTEX
  8
RAIL_LINE
 10
510532.00
 20
1143292.00
  0
VERTEX
  8
RAIL_LINE
 10
510654.00
 20
1143231.00
  0
VERTEX
  8
RAIL_LINE
 10
510934.00
 20
1143110.00
  0
VERTEX
  8
RAIL_LINE
 10
511072.00
 20
1143040.00
  0
VERTEX
  8
RAIL_LINE
 10
511150.00
 20
1143005.00
  0
VERTEX
  8
RAIL_LINE
 10
511195.00
 20
1142981.00
  0
VERTEX
  8
RAIL_LINE
 10
511255.00
 20
1142949.00
  0
VERTEX
  8
RAIL_LINE
 10
511468.00
 20
1142833.00
  0
VERTEX
  8
RAIL_LINE
 10
511537.00
 20
1142796.00
  0
VERTEX
  8
RAIL_LINE
 10
511625.00
 20
1142748.00
  0
VERTEX
  8
RAIL_LINE
 10
511809.00
 20
1142635.00
  0
VERTEX
  8
RAIL_LINE
 10
511922.00
 20
1142573.00
  0
VERTEX
  8
RAIL_LINE
 10
511957.00
 20
1142553.00
  0
VERTEX
  8
RAIL_LINE
 10
512083.00
 20
1142479.00
  0
VERTEX
  8
RAIL_LINE
 10
512152.00
 20
1142435.00
  0
VERTEX
  8
RAIL_LINE
 10
512198.00
 20
1142396.00
  0
VERTEX
  8
RAIL_LINE
 10
512230.00
 20
1142363.00
  0
VERTEX
  8
RAIL_LINE
 10
512255.00
 20
1142330.00
  0
VERTEX
  8
RAIL_LINE
 10
512285.00
 20
1142276.00
  0
VERTEX
  8
RAIL_LINE
 10
512302.00
 20
1142233.00
  0
VERTEX
  8
RAIL_LINE
 10
512308.00
 20
1142190.00
  0
VERTEX
  8
RAIL_LINE
 10
512321.00
 20
1142091.00
  0
VERTEX
  8
RAIL_LINE
 10
512321.00
 20
1142036.00
  0
VERTEX
  8
RAIL_LINE
 10
512317.00
 20
1141993.00
  0
VERTEX
  8
RAIL_LINE
 10
512309.00
 20
1141936.00
  0
VERTEX
  8
RAIL_LINE
 10
512298.00
 20
1141792.00
  0
VERTEX
  8
RAIL_LINE
 10
512288.00
 20
1141654.00
  0
VERTEX
  8
RAIL_LINE
 10
512289.00
 20
1141606.00
  0
VERTEX
  8
RAIL_LINE
 10
512289.00
 20
1141527.00
  0
VERTEX
  8
RAIL_LINE
 10
512296.00
 20
1141468.00
  0
VERTEX
  8
RAIL_LINE
 10
512315.00
 20
1141329.00
  0
VERTEX
  8
RAIL_LINE
 10
512333.00
 20
1141241.00
  0
VERTEX
  8
RAIL_LINE
 10
512349.00
 20
1141194.00
  0
VERTEX
  8
RAIL_LINE
 10
512369.00
 20
1141145.00
  0
VERTEX
  8
RAIL_LINE
 10
512411.00
 20
1141064.00
  0
VERTEX
  8
RAIL_LINE
 10
512509.00
 20
1140896.00
  0
VERTEX
  8
RAIL_LINE
 10
512558.00
 20
1140831.00
  0
VERTEX
  8
RAIL_LINE
 10
512595.00
 20
1140781.00
  0
VERTEX
  8
RAIL_LINE
 10
512650.00
 20
1140694.00
  0
VERTEX
  8
RAIL_LINE
 10
512735.00
 20
1140555.00
  0
VERTEX
  8
RAIL_LINE
 10
512776.00
 20
1140494.00
  0
VERTEX
  8
RAIL_LINE
 10
512795.00
 20
1140454.00
  0
VERTEX
  8
RAIL_LINE
 10
512813.00
 20
1140411.00
  0
VERTEX
  8
RAIL_LINE
 10
512830.00
 20
1140342.00
  0
VERTEX
  8
RAIL_LINE
 10
512844.00
 20
1140267.00
  0
VERTEX
  8
RAIL_LINE
 10
512841.00
 20
1140152.00
  0
VERTEX
  8
RAIL_LINE
 10
512837.00
 20
1140117.00
  0
VERTEX
  8
RAIL_LINE
 10
512827.00
 20
1140077.00
  0
VERTEX
  8
RAIL_LINE
 10
512809.00
 20
1140000.00
  0
SEQEND
  8
RAIL_LINE
  0
POLYLINE
  8
RAIL_LINE
 66
     1
 62
     6
  6
CONTINUOUS
  0
VERTEX
  8
RAIL_LINE
 10
512220.00
 20
1150000.00
  0
VERTEX
  8
RAIL_LINE
 10
512148.00
 20
1149734.00
  0
VERTEX
  8
RAIL_LINE
 10
512055.00
 20
1149413.00
  0
VERTEX
  8
RAIL_LINE
 10
512021.00
 20
1149306.00
  0
VERTEX
  8
RAIL_LINE
 10
512014.00
 20
1149263.00
  0
VERTEX
  8
RAIL_LINE
 10
511998.00
 20
1149219.00
  0
VERTEX
  8
RAIL_LINE
 10
511991.00
 20
1149191.00
  0
VERTEX
  8
RAIL_LINE
 10
511985.00
 20
1149144.00
  0
VERTEX
  8
RAIL_LINE
 10
511981.00
 20
1149092.00
  0
VERTEX
  8
RAIL_LINE
 10
511979.00
 20
1149052.00
  0
VERTEX
  8
RAIL_LINE
 10
511981.00
 20
1149002.00
  0
VERTEX
  8
RAIL_LINE
 10
511990.00
 20
1148947.00
  0
VERTEX
  8
RAIL_LINE
 10
512007.00
 20
1148871.00
  0
VERTEX
  8
RAIL_LINE
 10
512036.00
 20
1148789.00
  0
VERTEX
  8
RAIL_LINE
 10
512058.00
 20
1148742.00
  0
VERTEX
  8
RAIL_LINE
 10
512060.00
 20
1148738.00
  0
SEQEND
  8
RAIL_LINE
  0
POLYLINE
  8
ROAD_CENTRELINE
 66
     1
 62
     1
  6
CONTINUOUS
  0
VERTEX
  8
ROAD_CENTRELINE
 10
512060.00
 20
1148738.00
  0
VERTEX
  8
ROAD_CENTRELINE
 10
512096.75
 20
1148725.75
  0
SEQEND
  8
ROAD_CENTRELINE
  0
POLYLINE
  8
BRIDGE_ROADWAY
 66
     1
 62
     2
  6
CONTINUOUS
  0
VERTEX
  8
BRIDGE_ROADWAY
 10
512096.75
 20
1148725.75
  0
VERTEX
  8
BRIDGE_ROADWAY
 10
512093.00
 20
1148737.00
  0
VERTEX
  8
BRIDGE_ROADWAY
 10
512129.00
 20
1148727.00
  0
VERTEX
  8
BRIDGE_ROADWAY
 10
512133.69
 20
1148713.38
  0
SEQEND
  8
BRIDGE_ROADWAY
  0
POLYLINE
  8
ROAD_CENTRELINE
 66
     1
 62
     1
  6
CONTINUOUS
  0
VERTEX
  8
ROAD_CENTRELINE
 10
512096.75
 20
1148725.75
  0
VERTEX
  8
ROAD_CENTRELINE
 10
512133.69
 20
1148713.38
  0
SEQEND
  8
ROAD_CENTRELINE
  0
POLYLINE
  8
BRIDGE_ROADWAY
 66
     1
 62
     2
  6
CONTINUOUS
  0
VERTEX
  8
BRIDGE_ROADWAY
 10
512133.69
 20
1148713.38
  0
VERTEX
  8
BRIDGE_ROADWAY
 10
512138.00
 20
1148701.00
  0
VERTEX
  8
BRIDGE_ROADWAY
 10
512103.00
 20
1148707.00
  0
VERTEX
  8
BRIDGE_ROADWAY
 10
512096.75
 20
1148725.75
  0
SEQEND
  8
BRIDGE_ROADWAY
  0
POLYLINE
  8
ROAD_CENTRELINE
 66
     1
 62
     1
  6
CONTINUOUS
  0
VERTEX
  8
ROAD_CENTRELINE
 10
512133.69
 20
1148713.38
  0
VERTEX
  8
ROAD_CENTRELINE
 10
512186.00
 20
1148696.00
  0
SEQEND
  8
ROAD_CENTRELINE
  0
POLYLINE
  8
RAIL_LINE
 66
     1
 62
     6
  6
CONTINUOUS
  0
VERTEX
  8
RAIL_LINE
 10
512060.00
 20
1148738.00
  0
VERTEX
  8
RAIL_LINE
 10
512080.00
 20
1148696.00
  0
VERTEX
  8
RAIL_LINE
 10
512114.81
 20
1148647.88
  0
SEQEND
  8
RAIL_LINE
  0
POLYLINE
  8
BRIDGE_RAILWAY
 66
     1
 62
     2
  6
CONTINUOUS
  0
VERTEX
  8
BRIDGE_RAILWAY
 10
512114.81
 20
1148647.88
  0
VERTEX
  8
BRIDGE_RAILWAY
 10
512121.00
 20
1148653.00
  0
VERTEX
  8
BRIDGE_RAILWAY
 10
512135.00
 20
1148633.00
  0
VERTEX
  8
BRIDGE_RAILWAY
 10
512129.66
 20
1148627.63
  0
SEQEND
  8
BRIDGE_RAILWAY
  0
POLYLINE
  8
RAIL_LINE
 66
     1
 62
     6
  6
CONTINUOUS
  0
VERTEX
  8
RAIL_LINE
 10
512114.81
 20
1148647.88
  0
VERTEX
  8
RAIL_LINE
 10
512127.00
 20
1148631.00
  0
VERTEX
  8
RAIL_LINE
 10
512129.66
 20
1148627.63
  0
SEQEND
  8
RAIL_LINE
  0
POLYLINE
  8
BRIDGE_RAILWAY
 66
     1
 62
     2
  6
CONTINUOUS
  0
VERTEX
  8
BRIDGE_RAILWAY
 10
512129.66
 20
1148627.63
  0
VERTEX
  8
BRIDGE_RAILWAY
 10
512123.00
 20
1148621.00
  0
VERTEX
  8
BRIDGE_RAILWAY
 10
512109.00
 20
1148643.00
  0
VERTEX
  8
BRIDGE_RAILWAY
 10
512114.81
 20
1148647.88
  0
SEQEND
  8
BRIDGE_RAILWAY
  0
POLYLINE
  8
RAIL_LINE
 66
     1
 62
     6
  6
CONTINUOUS
  0
VERTEX
  8
RAIL_LINE
 10
512129.66
 20
1148627.63
  0
VERTEX
  8
RAIL_LINE
 10
512189.00
 20
1148553.00
  0
VERTEX
  8
RAIL_LINE
 10
512282.00
 20
1148446.00
  0
VERTEX
  8
RAIL_LINE
 10
512362.00
 20
1148366.00
  0
VERTEX
  8
RAIL_LINE
 10
512381.00
 20
1148340.00
  0
SEQEND
  8
RAIL_LINE
  0
POLYLINE
  8
TRAIL
 66
     1
 62
     2
  6
DIVIDE2
  0
VERTEX
  8
TRAIL
 10
512077.00
 20
1148321.00
  0
VERTEX
  8
TRAIL
 10
512131.00
 20
1148318.88
  0
SEQEND
  8
TRAIL
  0
POLYLINE
  8
BRIDGE_ROADWAY
 66
     1
 62
     2
  6
CONTINUOUS
  0
VERTEX
  8
BRIDGE_ROADWAY
 10
512131.00
 20
1148318.88
  0
VERTEX
  8
BRIDGE_ROADWAY
 10
512131.00
 20
1148325.00
  0
VERTEX
  8
BRIDGE_ROADWAY
 10
512162.00
 20
1148327.00
  0
VERTEX
  8
BRIDGE_ROADWAY
 10
512162.44
 20
1148317.63
  0
SEQEND
  8
BRIDGE_ROADWAY
  0
POLYLINE
  8
TRAIL
 66
     1
 62
     2
  6
DIVIDE2
  0
VERTEX
  8
TRAIL
 10
512131.00
 20
1148318.88
  0
VERTEX
  8
TRAIL
 10
512162.44
 20
1148317.63
  0
SEQEND
  8
TRAIL
  0
POLYLINE
  8
TRAIL
 66
     1
 62
     2
  6
DIVIDE2
  0
VERTEX
  8
TRAIL
 10
512162.44
 20
1148317.63
  0
VERTEX
  8
TRAIL
 10
512177.00
 20
1148317.00
  0
VERTEX
  8
TRAIL
 10
512243.00
 20
1148312.00
  0
VERTEX
  8
TRAIL
 10
512347.00
 20
1148314.00
  0
SEQEND
  8
TRAIL
  0
POLYLINE
  8
BRIDGE_ROADWAY
 66
     1
 62
     2
  6
CONTINUOUS
  0
VERTEX
  8
BRIDGE_ROADWAY
 10
512162.44
 20
1148317.63
  0
VERTEX
  8
BRIDGE_ROADWAY
 10
512163.00
 20
1148306.00
  0
VERTEX
  8
BRIDGE_ROADWAY
 10
512131.00
 20
1148305.00
  0
VERTEX
  8
BRIDGE_ROADWAY
 10
512131.00
 20
1148318.88
  0
SEQEND
  8
BRIDGE_ROADWAY
  0
POLYLINE
  8
ROAD_CENTRELINE
 66
     1
 62
     1
  6
CONTINUOUS
  0
VERTEX
  8
ROAD_CENTRELINE
 10
512347.00
 20
1148314.00
  0
VERTEX
  8
ROAD_CENTRELINE
 10
512308.00
 20
1148285.00
  0
VERTEX
  8
ROAD_CENTRELINE
 10
512195.38
 20
1148202.25
  0
SEQEND
  8
ROAD_CENTRELINE
  0
POLYLINE
  8
ROAD_CENTRELINE
 66
     1
 62
     1
  6
CONTINUOUS
  0
VERTEX
  8
ROAD_CENTRELINE
 10
512195.38
 20
1148202.25
  0
VERTEX
  8
ROAD_CENTRELINE
 10
512172.09
 20
1148178.38
  0
SEQEND
  8
ROAD_CENTRELINE
  0
POLYLINE
  8
BRIDGE_ROADWAY
 66
     1
 62
     2
  6
CONTINUOUS
  0
VERTEX
  8
BRIDGE_ROADWAY
 10
512172.09
 20
1148178.38
  0
VERTEX
  8
BRIDGE_ROADWAY
 10
512164.00
 20
1148187.00
  0
VERTEX
  8
BRIDGE_ROADWAY
 10
512190.00
 20
1148208.00
  0
VERTEX
  8
BRIDGE_ROADWAY
 10
512195.38
 20
1148202.25
  0
SEQEND
  8
BRIDGE_ROADWAY
  0
POLYLINE
  8
BRIDGE_ROADWAY
 66
     1
 62
     2
  6
CONTINUOUS
  0
VERTEX
  8
BRIDGE_ROADWAY
 10
512195.38
 20
1148202.25
  0
VERTEX
  8
BRIDGE_ROADWAY
 10
512205.00
 20
1148192.00
  0
VERTEX
  8
BRIDGE_ROADWAY
 10
512180.00
 20
1148170.00
  0
VERTEX
  8
BRIDGE_ROADWAY
 10
512172.09
 20
1148178.38
  0
SEQEND
  8
BRIDGE_ROADWAY
  0
POLYLINE
  8
ROAD_CENTRELINE
 66
     1
 62
     1
  6
CONTINUOUS
  0
VERTEX
  8
ROAD_CENTRELINE
 10
512172.09
 20
1148178.38
  0
VERTEX
  8
ROAD_CENTRELINE
 10
512161.00
 20
1148167.00
  0
VERTEX
  8
ROAD_CENTRELINE
 10
512099.00
 20
1148111.00
  0
VERTEX
  8
ROAD_CENTRELINE
 10
512079.00
 20
1148090.00
  0
SEQEND
  8
ROAD_CENTRELINE
  0
POLYLINE
  8
RAIL_LINE
 66
     1
 62
     6
  6
CONTINUOUS
  0
VERTEX
  8
RAIL_LINE
 10
516414.00
 20
1148237.00
  0
VERTEX
  8
RAIL_LINE
 10
516425.00
 20
1148220.00
  0
VERTEX
  8
RAIL_LINE
 10
516447.00
 20
1148194.00
  0
VERTEX
  8
RAIL_LINE
 10
516467.00
 20
1148173.00
  0
VERTEX
  8
RAIL_LINE
 10
516528.00
 20
1148117.00
  0
VERTEX
  8
RAIL_LINE
 10
516554.00
 20
1148099.00
  0
VERTEX
  8
RAIL_LINE
 10
516577.00
 20
1148086.00
  0
VERTEX
  8
RAIL_LINE
 10
516619.00
 20
1148069.00
  0
VERTEX
  8
RAIL_LINE
 10
516648.00
 20
1148058.00
  0
VERTEX
  8
RAIL_LINE
 10
516671.25
 20
1148050.13
  0
SEQEND
  8
RAIL_LINE
  0
POLYLINE
  8
BRIDGE_RAILWAY
 66
     1
 62
     2
  6
CONTINUOUS
  0
VERTEX
  8
BRIDGE_RAILWAY
 10
516671.25
 20
1148050.13
  0
VERTEX
  8
BRIDGE_RAILWAY
 10
516673.00
 20
1148056.00
  0
VERTEX
  8
BRIDGE_RAILWAY
 10
516740.00
 20
1148037.00
  0
VERTEX
  8
BRIDGE_RAILWAY
 10
516736.78
 20
1148028.38
  0
SEQEND
  8
BRIDGE_RAILWAY
  0
POLYLINE
  8
RAIL_LINE
 66
     1
 62
     6
  6
CONTINUOUS
  0
VERTEX
  8
RAIL_LINE
 10
516671.25
 20
1148050.13
  0
VERTEX
  8
RAIL_LINE
 10
516692.00
 20
1148043.00
  0
VERTEX
  8
RAIL_LINE
 10
516719.00
 20
1148033.00
  0
VERTEX
  8
RAIL_LINE
 10
516736.78
 20
1148028.38
  0
SEQEND
  8
RAIL_LINE
  0
POLYLINE
  8
BRIDGE_RAILWAY
 66
     1
 62
     2
  6
CONTINUOUS
  0
VERTEX
  8
BRIDGE_RAILWAY
 10
516736.78
 20
1148028.38
  0
VERTEX
  8
BRIDGE_RAILWAY
 10
516734.00
 20
1148021.00
  0
VERTEX
  8
BRIDGE_RAILWAY
 10
516668.00
 20
1148039.00
  0
VERTEX
  8
BRIDGE_RAILWAY
 10
516671.25
 20
1148050.13
  0
SEQEND
  8
BRIDGE_RAILWAY
  0
POLYLINE
  8
ROAD_CENTRELINE
 66
     1
 62
     1
  6
CONTINUOUS
  0
VERTEX
  8
ROAD_CENTRELINE
 10
516410.00
 20
1148147.00
  0
VERTEX
  8
ROAD_CENTRELINE
 10
516417.00
 20
1148140.00
  0
VERTEX
  8
ROAD_CENTRELINE
 10
516483.00
 20
1148089.00
  0
VERTEX
  8
ROAD_CENTRELINE
 10
516518.00
 20
1148060.00
  0
VERTEX
  8
ROAD_CENTRELINE
 10
516557.00
 20
1148034.00
  0
VERTEX
  8
ROAD_CENTRELINE
 10
516573.00
 20
1148022.00
  0
VERTEX
  8
ROAD_CENTRELINE
 10
516586.00
 20
1148016.00
  0
VERTEX
  8
ROAD_CENTRELINE
 10
516603.00
 20
1148010.00
  0
VERTEX
  8
ROAD_CENTRELINE
 10
516617.00
 20
1148007.00
  0
VERTEX
  8
ROAD_CENTRELINE
 10
516629.00
 20
1148000.00
  0
SEQEND
  8
ROAD_CENTRELINE
  0
POLYLINE
  8
RAIL_LINE
 66
     1
 62
     6
  6
CONTINUOUS
  0
VERTEX
  8
RAIL_LINE
 10
516736.78
 20
1148028.38
  0
VERTEX
  8
RAIL_LINE
 10
516746.00
 20
1148026.00
  0
VERTEX
  8
RAIL_LINE
 10
516771.00
 20
1148019.00
  0
VERTEX
  8
RAIL_LINE
 10
516835.00
 20
1148005.00
  0
VERTEX
  8
RAIL_LINE
 10
516892.00
 20
1147998.00
  0
VERTEX
  8
RAIL_LINE
 10
516917.00
 20
1148000.00
  0
VERTEX
  8
RAIL_LINE
 10
516960.00
 20
1148005.00
  0
VERTEX
  8
RAIL_LINE
 10
517012.00
 20
1148012.00
  0
VERTEX
  8
RAIL_LINE
 10
517069.00
 20
1148028.00
  0
VERTEX
  8
RAIL_LINE
 10
517173.00
 20
1148070.00
  0
VERTEX
  8
RAIL_LINE
 10
517264.00
 20
1148117.00
  0
VERTEX
  8
RAIL_LINE
 10
517374.00
 20
1148191.00
  0
VERTEX
  8
RAIL_LINE
 10
517486.00
 20
1148266.00
  0
VERTEX
  8
RAIL_LINE
 10
517616.00
 20
1148353.00
  0
VERTEX
  8
RAIL_LINE
 10
517659.00
 20
1148385.00
  0
VERTEX
  8
RAIL_LINE
 10
517687.00
 20
1148413.00
  0
VERTEX
  8
RAIL_LINE
 10
517708.00
 20
1148436.00
  0
VERTEX
  8
RAIL_LINE
 10
517757.00
 20
1148500.00
  0
VERTEX
  8
RAIL_LINE
 10
517831.00
 20
1148591.00
  0
VERTEX
  8
RAIL_LINE
 10
517860.00
 20
1148626.00
  0
SEQEND
  8
RAIL_LINE
  0
POLYLINE
  8
ROAD_CENTRELINE
 66
     1
 62
     1
  6
CONTINUOUS
  0
VERTEX
  8
ROAD_CENTRELINE
 10
516268.00
 20
1147992.00
  0
VERTEX
  8
ROAD_CENTRELINE
 10
516334.00
 20
1147995.00
  0
VERTEX
  8
ROAD_CENTRELINE
 10
516395.00
 20
1147991.00
  0
VERTEX
  8
ROAD_CENTRELINE
 10
516499.00
 20
1147991.00
  0
VERTEX
  8
ROAD_CENTRELINE
 10
516591.44
 20
1147983.38
  0
SEQEND
  8
ROAD_CENTRELINE
  0
POLYLINE
  8
BRIDGE_ROADWAY
 66
     1
 62
     2
  6
CONTINUOUS
  0
VERTEX
  8
BRIDGE_ROADWAY
 10
516591.44
 20
1147983.38
  0
VERTEX
  8
BRIDGE_ROADWAY
 10
516591.00
 20
1147994.00
  0
VERTEX
  8
BRIDGE_ROADWAY
 10
516722.00
 20
1147986.00
  0
VERTEX
  8
BRIDGE_ROADWAY
 10
516721.53
 20
1147973.50
  0
SEQEND
  8
BRIDGE_ROADWAY
  0
POLYLINE
  8
ROAD_CENTRELINE
 66
     1
 62
     1
  6
CONTINUOUS
  0
VERTEX
  8
ROAD_CENTRELINE
 10
516591.44
 20
1147983.38
  0
VERTEX
  8
ROAD_CENTRELINE
 10
516657.00
 20
1147978.00
  0
VERTEX
  8
ROAD_CENTRELINE
 10
516721.53
 20
1147973.50
  0
SEQEND
  8
ROAD_CENTRELINE
  0
POLYLINE
  8
ROAD_CENTRELINE
 66
     1
 62
     1
  6
CONTINUOUS
  0
VERTEX
  8
ROAD_CENTRELINE
 10
516721.53
 20
1147973.50
  0
VERTEX
  8
ROAD_CENTRELINE
 10
516744.00
 20
1147972.00
  0
SEQEND
  8
ROAD_CENTRELINE
  0
POLYLINE
  8
BRIDGE_ROADWAY
 66
     1
 62
     2
  6
CONTINUOUS
  0
VERTEX
  8
BRIDGE_ROADWAY
 10
516721.53
 20
1147973.50
  0
VERTEX
  8
BRIDGE_ROADWAY
 10
516721.00
 20
1147960.00
  0
VERTEX
  8
BRIDGE_ROADWAY
 10
516592.00
 20
1147970.00
  0
VERTEX
  8
BRIDGE_ROADWAY
 10
516591.44
 20
1147983.38
  0
SEQEND
  8
BRIDGE_ROADWAY
  0
POLYLINE
  8
ROAD_CENTRELINE
 66
     1
 62
     1
  6
CONTINUOUS
  0
VERTEX
  8
ROAD_CENTRELINE
 10
516744.00
 20
1147972.00
  0
VERTEX
  8
ROAD_CENTRELINE
 10
516820.00
 20
1147966.00
  0
VERTEX
  8
ROAD_CENTRELINE
 10
516993.00
 20
1147957.00
  0
VERTEX
  8
ROAD_CENTRELINE
 10
517103.00
 20
1147961.00
  0
VERTEX
  8
ROAD_CENTRELINE
 10
517189.00
 20
1147973.00
  0
VERTEX
  8
ROAD_CENTRELINE
 10
517233.00
 20
1147980.00
  0
VERTEX
  8
ROAD_CENTRELINE
 10
517276.00
 20
1147987.00
  0
VERTEX
  8
ROAD_CENTRELINE
 10
517389.00
 20
1147998.00
  0
VERTEX
  8
ROAD_CENTRELINE
 10
517492.00
 20
1148022.00
  0
VERTEX
  8
ROAD_CENTRELINE
 10
517552.00
 20
1148040.00
  0
VERTEX
  8
ROAD_CENTRELINE
 10
517610.00
 20
1148058.00
  0
VERTEX
  8
ROAD_CENTRELINE
 10
517705.00
 20
1148092.00
  0
VERTEX
  8
ROAD_CENTRELINE
 10
517776.00
 20
1148135.00
  0
VERTEX
  8
ROAD_CENTRELINE
 10
517833.00
 20
1148176.00
  0
VERTEX
  8
ROAD_CENTRELINE
 10
517911.00
 20
1148245.00
  0
VERTEX
  8
ROAD_CENTRELINE
 10
517993.00
 20
1148319.00
  0
VERTEX
  8
ROAD_CENTRELINE
 10
518152.00
 20
1148463.00
  0
VERTEX
  8
ROAD_CENTRELINE
 10
518302.00
 20
1148601.00
  0
VERTEX
  8
ROAD_CENTRELINE
 10
518437.00
 20
1148725.00
  0
VERTEX
  8
ROAD_CENTRELINE
 10
518450.00
 20
1148739.00
  0
SEQEND
  8
ROAD_CENTRELINE
  0
POLYLINE
  8
RAIL_LINE
 66
     1
 62
     6
  6
CONTINUOUS
  0
VERTEX
  8
RAIL_LINE
 10
512406.03
 20
1147899.13
  0
VERTEX
  8
RAIL_LINE
 10
512441.44
 20
1147899.88
  0
SEQEND
  8
RAIL_LINE
  0
POLYLINE
  8
BRIDGE_RAILWAY
 66
     1
 62
     2
  6
CONTINUOUS
  0
VERTEX
  8
BRIDGE_RAILWAY
 10
512406.03
 20
1147899.13
  0
VERTEX
  8
BRIDGE_RAILWAY
 10
512405.00
 20
1147907.00
  0
VERTEX
  8
BRIDGE_RAILWAY
 10
512441.00
 20
1147908.00
  0
VERTEX
  8
BRIDGE_RAILWAY
 10
512441.44
 20
1147899.88
  0
SEQEND
  8
BRIDGE_RAILWAY
  0
POLYLINE
  8
BRIDGE_RAILWAY
 66
     1
 62
     2
  6
CONTINUOUS
  0
VERTEX
  8
BRIDGE_RAILWAY
 10
512441.44
 20
1147899.88
  0
VERTEX
  8
BRIDGE_RAILWAY
 10
512442.00
 20
1147889.00
  0
VERTEX
  8
BRIDGE_RAILWAY
 10
512408.00
 20
1147884.00
  0
VERTEX
  8
BRIDGE_RAILWAY
 10
512406.03
 20
1147899.13
  0
SEQEND
  8
BRIDGE_RAILWAY
  0
POLYLINE
  8
RAIL_LINE
 66
     1
 62
     6
  6
CONTINUOUS
  0
VERTEX
  8
RAIL_LINE
 10
511725.00
 20
1147861.00
  0
VERTEX
  8
RAIL_LINE
 10
511768.00
 20
1147863.00
  0
VERTEX
  8
RAIL_LINE
 10
511922.00
 20
1147871.00
  0
VERTEX
  8
RAIL_LINE
 10
512209.00
 20
1147889.00
  0
VERTEX
  8
RAIL_LINE
 10
512307.00
 20
1147892.00
  0
VERTEX
  8
RAIL_LINE
 10
512398.00
 20
1147899.00
  0
VERTEX
  8
RAIL_LINE
 10
512406.03
 20
1147899.13
  0
SEQEND
  8
RAIL_LINE
  0
POLYLINE
  8
RAIL_LINE
 66
     1
 62
     6
  6
CONTINUOUS
  0
VERTEX
  8
RAIL_LINE
 10
512381.00
 20
1148340.00
  0
VERTEX
  8
RAIL_LINE
 10
512466.00
 20
1148231.00
  0
VERTEX
  8
RAIL_LINE
 10
512627.00
 20
1148064.00
  0
VERTEX
  8
RAIL_LINE
 10
512695.00
 20
1147987.00
  0
VERTEX
  8
RAIL_LINE
 10
512751.00
 20
1147927.00
  0
VERTEX
  8
RAIL_LINE
 10
512837.00
 20
1147840.00
  0
VERTEX
  8
RAIL_LINE
 10
512846.00
 20
1147829.00
  0
SEQEND
  8
RAIL_LINE
  0
POLYLINE
  8
RAIL_LINE
 66
     1
 62
     6
  6
CONTINUOUS
  0
VERTEX
  8
RAIL_LINE
 10
512441.44
 20
1147899.88
  0
VERTEX
  8
RAIL_LINE
 10
512446.00
 20
1147900.00
  0
VERTEX
  8
RAIL_LINE
 10
512510.00
 20
1147900.00
  0
VERTEX
  8
RAIL_LINE
 10
512570.00
 20
1147896.00
  0
VERTEX
  8
RAIL_LINE
 10
512611.00
 20
1147891.00
  0
VERTEX
  8
RAIL_LINE
 10
512665.00
 20
1147884.00
  0
VERTEX
  8
RAIL_LINE
 10
512692.00
 20
1147880.00
  0
VERTEX
  8
RAIL_LINE
 10
512761.00
 20
1147861.00
  0
VERTEX
  8
RAIL_LINE
 10
512817.00
 20
1147840.00
  0
VERTEX
  8
RAIL_LINE
 10
512846.00
 20
1147829.00
  0
SEQEND
  8
RAIL_LINE
  0
POLYLINE
  8
ROAD_CENTRELINE
 66
     1
 62
     1
  6
CONTINUOUS
  0
VERTEX
  8
ROAD_CENTRELINE
 10
516744.00
 20
1147972.00
  0
VERTEX
  8
ROAD_CENTRELINE
 10
516741.00
 20
1147950.00
  0
VERTEX
  8
ROAD_CENTRELINE
 10
516735.00
 20
1147939.00
  0
VERTEX
  8
ROAD_CENTRELINE
 10
516726.00
 20
1147930.00
  0
VERTEX
  8
ROAD_CENTRELINE
 10
516712.00
 20
1147921.00
  0
VERTEX
  8
ROAD_CENTRELINE
 10
516602.00
 20
1147873.00
  0
VERTEX
  8
ROAD_CENTRELINE
 10
516524.00
 20
1147834.00
  0
VERTEX
  8
ROAD_CENTRELINE
 10
516459.00
 20
1147792.00
  0
VERTEX
  8
ROAD_CENTRELINE
 10
516458.00
 20
1147791.00
  0
SEQEND
  8
ROAD_CENTRELINE
  0
POLYLINE
  8
RAIL_LINE
 66
     1
 62
     6
  6
CONTINUOUS
  0
VERTEX
  8
RAIL_LINE
 10
513545.00
 20
1146599.00
  0
VERTEX
  8
RAIL_LINE
 10
513508.00
 20
1146563.00
  0
VERTEX
  8
RAIL_LINE
 10
513418.00
 20
1146462.00
  0
VERTEX
  8
RAIL_LINE
 10
513341.00
 20
1146382.00
  0
VERTEX
  8
RAIL_LINE
 10
513286.00
 20
1146330.00
  0
VERTEX
  8
RAIL_LINE
 10
513233.00
 20
1146269.00
  0
VERTEX
  8
RAIL_LINE
 10
513178.00
 20
1146203.00
  0
VERTEX
  8
RAIL_LINE
 10
513143.00
 20
1146158.00
  0
VERTEX
  8
RAIL_LINE
 10
513127.00
 20
1146133.00
  0
VERTEX
  8
RAIL_LINE
 10
513110.00
 20
1146105.00
  0
VERTEX
  8
RAIL_LINE
 10
513100.00
 20
1146080.00
  0
VERTEX
  8
RAIL_LINE
 10
513076.00
 20
1146017.00
  0
VERTEX
  8
RAIL_LINE
 10
513060.00
 20
1145974.00
  0
VERTEX
  8
RAIL_LINE
 10
513049.00
 20
1145927.00
  0
VERTEX
  8
RAIL_LINE
 10
513042.00
 20
1145874.00
  0
VERTEX
  8
RAIL_LINE
 10
513044.00
 20
1145810.00
  0
VERTEX
  8
RAIL_LINE
 10
513051.00
 20
1145745.00
  0
VERTEX
  8
RAIL_LINE
 10
513056.00
 20
1145695.00
  0
VERTEX
  8
RAIL_LINE
 10
513056.69
 20
1145679.25
  0
SEQEND
  8
RAIL_LINE
  0
POLYLINE
  8
TRAIL
 66
     1
 62
     2
  6
DIVIDE2
  0
VERTEX
  8
TRAIL
 10
513545.00
 20
1146599.00
  0
VERTEX
  8
TRAIL
 10
513539.00
 20
1146597.00
  0
VERTEX
  8
TRAIL
 10
513420.00
 20
1146549.00
  0
VERTEX
  8
TRAIL
 10
513340.00
 20
1146535.00
  0
VERTEX
  8
TRAIL
 10
513302.00
 20
1146529.00
  0
VERTEX
  8
TRAIL
 10
513287.00
 20
1146525.00
  0
VERTEX
  8
TRAIL
 10
513270.00
 20
1146517.00
  0
VERTEX
  8
TRAIL
 10
513244.00
 20
1146491.00
  0
VERTEX
  8
TRAIL
 10
513109.00
 20
1146261.00
  0
VERTEX
  8
TRAIL
 10
513067.00
 20
1146200.00
  0
VERTEX
  8
TRAIL
 10
513051.00
 20
1146166.00
  0
VERTEX
  8
TRAIL
 10
513043.00
 20
1146137.00
  0
VERTEX
  8
TRAIL
 10
513038.00
 20
1146083.00
  0
VERTEX
  8
TRAIL
 10
513040.00
 20
1145993.00
  0
VERTEX
  8
TRAIL
 10
513027.00
 20
1145875.00
  0
VERTEX
  8
TRAIL
 10
513032.00
 20
1145793.00
  0
VERTEX
  8
TRAIL
 10
513034.00
 20
1145742.00
  0
VERTEX
  8
TRAIL
 10
513020.00
 20
1145704.00
  0
VERTEX
  8
TRAIL
 10
513004.00
 20
1145683.00
  0
VERTEX
  8
TRAIL
 10
512990.00
 20
1145671.00
  0
VERTEX
  8
TRAIL
 10
512970.00
 20
1145653.00
  0
SEQEND
  8
TRAIL
  0
POLYLINE
  8
BRIDGE_RAILWAY
 66
     1
 62
     2
  6
CONTINUOUS
  0
VERTEX
  8
BRIDGE_RAILWAY
 10
513056.69
 20
1145679.25
  0
VERTEX
  8
BRIDGE_RAILWAY
 10
513068.00
 20
1145680.00
  0
VERTEX
  8
BRIDGE_RAILWAY
 10
513073.00
 20
1145626.00
  0
VERTEX
  8
BRIDGE_RAILWAY
 10
513056.38
 20
1145624.13
  0
SEQEND
  8
BRIDGE_RAILWAY
  0
POLYLINE
  8
RAIL_LINE
 66
     1
 62
     6
  6
CONTINUOUS
  0
VERTEX
  8
RAIL_LINE
 10
513056.69
 20
1145679.25
  0
VERTEX
  8
RAIL_LINE
 10
513058.00
 20
1145649.00
  0
VERTEX
  8
RAIL_LINE
 10
513056.38
 20
1145624.13
  0
SEQEND
  8
RAIL_LINE
  0
POLYLINE
  8
BRIDGE_RAILWAY
 66
     1
 62
     2
  6
CONTINUOUS
  0
VERTEX
  8
BRIDGE_RAILWAY
 10
513056.38
 20
1145624.13
  0
VERTEX
  8
BRIDGE_RAILWAY
 10
513055.00
 20
1145624.00
  0
VERTEX
  8
BRIDGE_RAILWAY
 10
513053.00
 20
1145679.00
  0
VERTEX
  8
BRIDGE_RAILWAY
 10
513056.69
 20
1145679.25
  0
SEQEND
  8
BRIDGE_RAILWAY
  0
POLYLINE
  8
RAIL_LINE
 66
     1
 62
     6
  6
CONTINUOUS
  0
VERTEX
  8
RAIL_LINE
 10
513056.38
 20
1145624.13
  0
VERTEX
  8
RAIL_LINE
 10
513055.00
 20
1145603.00
  0
VERTEX
  8
RAIL_LINE
 10
513050.00
 20
1145553.00
  0
VERTEX
  8
RAIL_LINE
 10
513040.00
 20
1145528.00
  0
VERTEX
  8
RAIL_LINE
 10
513027.00
 20
1145507.00
  0
VERTEX
  8
RAIL_LINE
 10
512925.00
 20
1145417.00
  0
VERTEX
  8
RAIL_LINE
 10
512852.00
 20
1145360.00
  0
VERTEX
  8
RAIL_LINE
 10
512801.00
 20
1145320.00
  0
VERTEX
  8
RAIL_LINE
 10
512751.00
 20
1145268.00
  0
VERTEX
  8
RAIL_LINE
 10
512724.00
 20
1145232.00
  0
VERTEX
  8
RAIL_LINE
 10
512666.00
 20
1145158.00
  0
VERTEX
  8
RAIL_LINE
 10
512629.00
 20
1145116.00
  0
VERTEX
  8
RAIL_LINE
 10
512600.00
 20
1145075.00
  0
VERTEX
  8
RAIL_LINE
 10
512546.00
 20
1145005.00
  0
VERTEX
  8
RAIL_LINE
 10
512482.00
 20
1144921.00
  0
VERTEX
  8
RAIL_LINE
 10
512433.00
 20
1144869.00
  0
VERTEX
  8
RAIL_LINE
 10
512367.00
 20
1144831.00
  0
VERTEX
  8
RAIL_LINE
 10
512296.00
 20
1144787.00
  0
VERTEX
  8
RAIL_LINE
 10
512207.00
 20
1144731.00
  0
VERTEX
  8
RAIL_LINE
 10
512133.00
 20
1144684.00
  0
VERTEX
  8
RAIL_LINE
 10
512027.00
 20
1144619.00
  0
VERTEX
  8
RAIL_LINE
 10
512021.00
 20
1144614.00
  0
SEQEND
  8
RAIL_LINE
  0
ENDSEC
  0
EOF
